six.cordes : les cours de guitare Index du Forum

Forum de discussions sur l'apprentissage et les cours de guitare en général.
 
six.cordes : les cours de guitare Index du ForumFAQRechercherMembresGroupesProfilS’enregistrerConnexion

Douce nuit, façon picking

 
Poster un nouveau sujet   Répondre au sujet    six.cordes : les cours de guitare Index du Forum -> Apprendre et comprendre la guitare -> Comment apprendre la guitare ? - FAQ
Sujet précédent :: Sujet suivant  
Auteur Message
Narduccio
Modérateur

Hors ligne

Inscrit le: 09 Jan 2008
Messages: 4 415
Localisation: Alsace
Masculin Bélier (21mar-19avr) 鼠 Rat
Niveau de guitare: En progrès
Point(s): 0
Moyenne de points: 0

MessagePosté le: Lun 5 Nov 2012 - 23:03    Sujet du message: Douce nuit, façon picking Répondre en citant

Enfin, façon picking si on le joue sur une guitare folk. Si on le joue sur une guitare classique, on peut considérer que c'est du classique.

Code:
E |-------------------------|----------|-------------------------|----------|--2-----2-------|
B |--0--------2--0----------|----------|--0--------2--0----------|----------|----------------|
G |-------------------------|--1-------|-------------------------|--1-------|----------------|
D |-------------------------|----------|-------------------------|----------|----------------|
A |-------------------------|----------|-------------------------|----------|--2-------------|
E |--0----------------------|--0-------|--0----------------------|--0-------|----------------|


----------|--0-----0-------|----------|----------------|--0----------------------|-------------------------|
--4-------|----------------|--0-------|--2-----2-------|-----------4--2----------|--0--------2--0----------|
----------|----------------|----------|----------------|-------------------------|-------------------------|
----------|----------------|----------|----------------|-------------------------|-------------------------|
--2-------|----------------|----------|--0-------------|--0----------------------|-------------------------|
----------|--0-------------|--0-------|----------------|-------------------------|--0----------------------|


----------|----------------|--0----------------------|-------------------------|----------|
----------|--2-----2-------|-----------4--2----------|--0--------2--0----------|----------|
--1-------|----------------|-------------------------|-------------------------|--1-------|
----------|----------------|-------------------------|-------------------------|----------|
----------|--0-------------|--0----------------------|-------------------------|----------|
--0-------|----------------|-------------------------|--0----------------------|--0-------|


--2-----2-------|--5--------2-------------|--0-------|--4-------|--0----------------------|
----------------|--------------4----------|----------|----------|-----------0-------------|
----------------|-------------------------|----------|----------|--------------1----------|
----------------|-------------------------|----------|----------|-------------------------|
--2-------------|--2----------------------|----------|----------|-------------------------|
----------------|-------------------------|--0-------|--0-------|--0----------------------|


-------------------------|----------|----------||
--0----------------------|----------|----------||
-----------2-------------|----------|----------||
--------------4----------|--2-------|--2-------||
--2----------------------|----------|----------||
-------------------------|--0-------|--0-------||


C'est une version simple avec un simple accompagnement à la basse.

Pour ceux qui préfèrent les partitions, il suffit de cliquer.

Édit : voici le fichier GPX : Douce Nuit.gpx
_________________
"Nous sommes des nains juchés sur des épaules de géant."
Bernard de Chartres


Dernière édition par Narduccio le Mar 6 Nov 2012 - 14:19; édité 1 fois
Revenir en haut
Publicité






MessagePosté le: Lun 5 Nov 2012 - 23:03    Sujet du message: Publicité

PublicitéSupprimer les publicités ?
Revenir en haut
Gribouille31
Administrateur

Hors ligne

Inscrit le: 24 Oct 2008
Messages: 2 953
Localisation: Toulouse
Féminin
Niveau de guitare: depuis juin 2008
Point(s): 0
Moyenne de points: 0

MessagePosté le: Mar 6 Nov 2012 - 09:05    Sujet du message: Douce nuit, façon picking Répondre en citant

Tipe tope ! Ça fait un bail que je veux la jouer avec mes filles et... bah j'ai plus trop d'excuses Embarassed... merci Narduccio Smile
_________________
Petit à petit on devient moins petit...
Exclamation Sommaire des cours du forum Exclamation
Revenir en haut
Visiter le site web du posteur
Narduccio
Modérateur

Hors ligne

Inscrit le: 09 Jan 2008
Messages: 4 415
Localisation: Alsace
Masculin Bélier (21mar-19avr) 鼠 Rat
Niveau de guitare: En progrès
Point(s): 0
Moyenne de points: 0

MessagePosté le: Mar 6 Nov 2012 - 14:12    Sujet du message: Douce nuit, façon picking Répondre en citant

Gribouille31 a écrit:
Tipe tope ! Ça fait un bail que je veux la jouer avec mes filles et... bah j'ai plus trop d'excuses Embarassed... merci Narduccio Smile


J'espère que nous pourrons voir la vidéo quand tu la maitrisera. Il n'y a qu'un au deux passages un peu difficile pour un débutant. Mais, ça devrait aller pour quelqu'un qui a un peu de pratique.

J'ai plusieurs versions de cette tabs sur mon ordi. Le rythme est un 3/4. Dit trivialement, c'est une valse ... En mi, comme ici, c'est assez facile.

Pour ceux qui veulent monter de niveau, voici la version avec un accompagnement plus riche. Il faut, bien entendu, accentuer la mélodie et le premier temps de l'accompagnement.

Code:

E |-------------------------------|----------------|-------------------------------|----------------|--2-------------2-----|
B |--0--------2--0----------------|----------------|--0--------2--0----------------|----------------|----------------------|
G |-------------------------------|--1-------------|-------------------------------|--1-------------|-----------------2----|
D |------------------2------------|-----------2----|------------------2------------|-----------2----|--------1-------------|
A |--------2----------------------|-----2----------|--------2----------------------|-----2----------|--2-------------------|
E |--0----------------------------|--0-------------|--0----------------------------|--0-------------|----------------------|

----------------|--0--------------0----|----------------|----------------------|--0----------------------------|-------------------------------|
--4-------------|----------------------|--0-------------|--2-------------2-----|-----------------4------2------|--0-----------------2----0-----|
--------2-------|----------------------|----------------|-----------------2----|--------------------------2----|-------------------------------|
-----------1----|-----------------2----|-----------2----|---------2------------|------------2------------------|--------------------------2----|
--2-------------|--------2-------------|--------2-------|--0-------------------|--0----------------------------|------------2------------------|
----------------|--0-------------------|-0--------------|----------------------|-------------------------------|--0----------------------------|

----------------|----------------------|--0----------------------------|-------------------------------|----------------|--2--------------2----|
----------------|--2--------------2----|--------------------4--2-------|--0--------------------2--0----|----------------|----------------------|
--1-------------|-----------------2----|------------------------2------|-------------------------------|--1-------------|-----------------2----|
-----------2----|--------2-------------|-------------2-----------------|--------------------------2----|-----------2----|----------1-----------|
--------2-------|--0-------------------|--0----------------------------|-------------2-----------------|------2---------|--2-------------------|
--0-------------|----------------------|-------------------------------|--0----------------------------|--0-------------|----------------------|

--5-------------------2--------|--0-------------|--4-------------|--0----------------------------|-------------------------------|
--------------------------4----|----------------|----------------|---------------------0---------|--0----------------------------|
--------------------------2----|----------------|----------------|--------------------------1----|-----------2--------------2----|
--------------1----------------|-----------2----|-----------2----|--------------------------2----|-------1-----------------4-----|
--2----------------------------|------2---------|-----2----------|------------2------------------|--2----------------------------|
-------------------------------|--0-------------|--0-------------|--0----------------------------|-------------------------------|


----------------|----------||
----------------|----------||
----------------|----------||
--2--------2----|--2-------||
------2---------|--2-------||
--0-------------|--0-------||


ÉDIT : j'oubliais la partition.
et la tab.

Plus cadeau, le fichier Guitar Pro : Douce Nuit.gpx
Avec un peu de travail, ce devrait être parfait vers le 24 décembre. Mr. Green
_________________
"Nous sommes des nains juchés sur des épaules de géant."
Bernard de Chartres


Dernière édition par Narduccio le Mar 6 Nov 2012 - 15:33; édité 1 fois
Revenir en haut
Narduccio
Modérateur

Hors ligne

Inscrit le: 09 Jan 2008
Messages: 4 415
Localisation: Alsace
Masculin Bélier (21mar-19avr) 鼠 Rat
Niveau de guitare: En progrès
Point(s): 0
Moyenne de points: 0

MessagePosté le: Mar 6 Nov 2012 - 14:20    Sujet du message: Douce nuit, façon picking Répondre en citant

Demain, si j'ai le temps, la version 6/8. C'est plus entrainant, mais il faut tricoter un peu avec les doigts de la main gauche. Rolling Eyes
_________________
"Nous sommes des nains juchés sur des épaules de géant."
Bernard de Chartres
Revenir en haut
pefmo
Invité

Hors ligne




MessagePosté le: Mar 6 Nov 2012 - 16:18    Sujet du message: Douce nuit, façon picking Répondre en citant

c'est très cool, ces petits pickings de Noel !!^^

merci bien !
Revenir en haut
Narduccio
Modérateur

Hors ligne

Inscrit le: 09 Jan 2008
Messages: 4 415
Localisation: Alsace
Masculin Bélier (21mar-19avr) 鼠 Rat
Niveau de guitare: En progrès
Point(s): 0
Moyenne de points: 0

MessagePosté le: Mer 7 Nov 2012 - 15:51    Sujet du message: Douce nuit, façon picking Répondre en citant

Voici la version en 6/8 :

Code:
E |----------------------------------------|-------------------------|----------------------------------------|-------------------------|
B |--0--------------2--0-------------------|--------------0----------|--0--------------2--0-------------------|--------------0----------|
G |-----------------1----------------------|--1----------------------|-----------------1----------------------|--1----------------------|
D |-----------2---------2------------------|-----------2-----2-------|-----------2---------2------------------|-----------2-----2-------|
A |-----2-----------------------------2----|------2-------------2----|-----2-----------------------------2----|-----2--------------2----|
E |--0-------------------------------------|--0----------------------|--0-------------------------------------|--0----------------------|


--2--------------------2 -------|--------------2----------|--0---------------------0------|-------------------------|
--------------------0----------|--4----------------------|-------------------------------|--0----------------------|
--------------2--------2-------|-----------2-----2-------|--------------------1----------|--------------1----------|
-------1------------------1----|--------1-----------1----|-----------------2-----2-------|-----------2-----2-------|
--2----------------------------|--2----------------------|--------------2-----------2----|--------2-----------2----|
-------------------------------|-------------------------|--0------------------------------|---0---------------------|


--------------------0----------|--0-------------------------------------|----------------------------------------|-------------------------|
--2-------------------2--------|-----------------------------4--2-------|--0--------------2--0-------------------|--------------0----------|
-----------------2-----2-------|-----------------2--------------2-------|-----------------1----------------------|--1----------------------|
--------------2-----------2----|-----------2-----------------------2----|-----------2---------2------------------|-----------2-----2-------|
--0----------------------------|--0-------------------------------------|-----2-----------------------------2----|--------2-----------2----|
-------------------------------|----------------------------------------|--0-------------------------------------|--0----------------------|

--------------------0----------|--0-------------------------------------|----------------------------------------|-------------------------|
--2--------------------2-------|-----------------------------4--2-------|--0-------------------------2--0--------|--------------0----------|
--------------2--------2-------|--------------2-----------------2-------|-----------------------------1----------|--1----------------------|
---------2----------------2----|------2----------------------------2----|-------------2------------------2-------|-----------2-----2-------|
--0----------------------------|--0-------------------------------------|--------2--------------------------2----|--------2-----------2----|
-------------------------------|----------------------------------------|---0------------------------------------|--0----------------------|

--2---------------------2------|--5----------------2--------------------|--0----------------------|--4----------------------|
--------------------0----------|--------------------------------4-------|-------------------------|-------------------------|
-----------------2-----2-------|----------2--------------------2--------|--------------1----------|--------------1----------|
--------------1-----------1----|------1----------------------------1----|-----------2-----2-------|-----------2-----2-------|
--2----------------------------|--2-------------------------------------|--------2-----------2----|--------2-----------2----|
-------------------------------|----------------------------------------|-----0-------------------|-----0-------------------|


--0-------------------------------------|-----------------------------2----------|-------------------------|----------||
--------------0-------------------------|--0-------------------------------------|-------------------------|----------||
--------------1--------------1----------|-----------2--------------2-----1-------|--------------1----------|----------||
----------2-------------------2---------|-------1-------------------------4------|--2--------2-----2-------|--2-------||
-----2-----------------------------2----|--2--------------------------------2----|--------2-----------2----|-----2----||
--0-------------------------------------|----------------------------------------|--0----------------------|-----0----||


Voici la Tablature en PDF

La partition en PDF

Le fichier GPX
_________________
"Nous sommes des nains juchés sur des épaules de géant."
Bernard de Chartres
Revenir en haut
Narduccio
Modérateur

Hors ligne

Inscrit le: 09 Jan 2008
Messages: 4 415
Localisation: Alsace
Masculin Bélier (21mar-19avr) 鼠 Rat
Niveau de guitare: En progrès
Point(s): 0
Moyenne de points: 0

MessagePosté le: Mer 7 Nov 2012 - 15:53    Sujet du message: Douce nuit, façon picking Répondre en citant

Je pense que je n'enverrais plus les fichiers ASCII, je dois à chaque fois corriger un tas de détails parce que GP6 ne les gère pas bien, les notes des cordes aiguës apparaissent avant les notes des cordes graves.
_________________
"Nous sommes des nains juchés sur des épaules de géant."
Bernard de Chartres
Revenir en haut
Narduccio
Modérateur

Hors ligne

Inscrit le: 09 Jan 2008
Messages: 4 415
Localisation: Alsace
Masculin Bélier (21mar-19avr) 鼠 Rat
Niveau de guitare: En progrès
Point(s): 0
Moyenne de points: 0

MessagePosté le: Mer 7 Nov 2012 - 16:47    Sujet du message: Douce nuit, façon picking Répondre en citant

Juste pour finir, une version toute en barrés. Là, c'est plus du tout du niveau débutant, et je suis bien incapable de la jouer.

Tablature en PDF

Partition en PDF

Douce Nuit GPX



Schneider m'ayant signalé quelques petites erreurs et imperfections, j'ai corrigé cette version. Un grand merci Schneidy.
_________________
"Nous sommes des nains juchés sur des épaules de géant."
Bernard de Chartres


Dernière édition par Narduccio le Dim 11 Nov 2012 - 23:17; édité 1 fois
Revenir en haut
01ivier
5 cordes
5 cordes

Hors ligne

Inscrit le: 14 Mar 2011
Messages: 1 320
Localisation: Gex
Masculin Scorpion (23oct-21nov)
Niveau de guitare: Passionné...
Point(s): 0
Moyenne de points: 0

MessagePosté le: Jeu 8 Nov 2012 - 23:21    Sujet du message: Douce nuit, façon picking Répondre en citant

Merci pour tout ce contenu... Wink
_________________
"Je pense qu'il est plus facile de jouer vite que de construire quelque chose d'intéressant sur tempo lent."

Thelonious Monk
Revenir en haut
Visiter le site web du posteur
six.cordes
Administrateur

Hors ligne

Inscrit le: 15 Juin 2007
Messages: 4 426
Localisation: Geneva
Masculin Capricorne (22déc-19jan)
Niveau de guitare: Reprends des forces
Point(s): 0
Moyenne de points: 0

MessagePosté le: Mer 14 Nov 2012 - 21:55    Sujet du message: Douce nuit, façon picking Répondre en citant

Excellent, à noter que la version en barré peut se jouer avec un capo.
_________________
www.six-cordes.com

http://www.facebook.com/6cordes

"Be the change you want to see in the world". M. Gandhi
Revenir en haut
Visiter le site web du posteur
Rymounette
Deux cordes
Deux cordes

Hors ligne

Inscrit le: 05 Déc 2010
Messages: 95
Localisation: Cluses
Féminin Balance (23sep-22oct) 羊 Chèvre
Niveau de guitare: Manchotte
Point(s): 0
Moyenne de points: 0

MessagePosté le: Jeu 31 Jan 2013 - 16:56    Sujet du message: Douce nuit, façon picking Répondre en citant

Ohhhh! C'est génial ça! Merci beaucoup!  Okay
_________________
J'ai des questions à toutes vos réponses.
Revenir en haut
Narduccio
Modérateur

Hors ligne

Inscrit le: 09 Jan 2008
Messages: 4 415
Localisation: Alsace
Masculin Bélier (21mar-19avr) 鼠 Rat
Niveau de guitare: En progrès
Point(s): 0
Moyenne de points: 0

MessagePosté le: Sam 19 Déc 2015 - 20:06    Sujet du message: Douce nuit, façon picking Répondre en citant

Très belle version sur le site de six-cordes : https://www.youtube.com/watch?v=aggiSnR-h9k&feature=youtu.be
_________________
"Nous sommes des nains juchés sur des épaules de géant."
Bernard de Chartres
Revenir en haut
Contenu Sponsorisé






MessagePosté le: Aujourd’hui à 09:53    Sujet du message: Douce nuit, façon picking

Revenir en haut
Montrer les messages depuis:   
Poster un nouveau sujet   Répondre au sujet    six.cordes : les cours de guitare Index du Forum -> Apprendre et comprendre la guitare -> Comment apprendre la guitare ? - FAQ Toutes les heures sont au format GMT + 1 Heure
Page 1 sur 1

 
Sauter vers:  

Portail | Index | créer un forum | Forum gratuit d’entraide | Annuaire des forums gratuits | Signaler une violation | Conditions générales d'utilisation
Powered by phpBB © 2001, 2005 phpBB Group
Logo by mide.be