six.cordes : les cours de guitare Index du Forum

Forum de discussions sur l'apprentissage et les cours de guitare en général.
 
six.cordes : les cours de guitare Index du ForumFAQRechercherMembresGroupesProfilS’enregistrerConnexion

Débutants : commencer à jouer les gammes

 
Poster un nouveau sujet   Répondre au sujet    six.cordes : les cours de guitare Index du Forum -> Apprendre et comprendre la guitare -> Le solfège : apprendre et comprendre -> Les cours de solfège du forum
Sujet précédent :: Sujet suivant  
Auteur Message
SkyPhil
Trois cordes
Trois cordes

Hors ligne

Inscrit le: 14 Juin 2009
Messages: 165
Localisation: Namur
Masculin Lion (24juil-23aoû) 猴 Singe
Niveau de guitare: houla ! sans comment
Point(s): 0
Moyenne de points: 0

MessagePosté le: Dim 16 Jan 2011 - 18:53    Sujet du message: Débutants : commencer à jouer les gammes Répondre en citant

Bonjour,


Je me suis dit que vous faire profiter des leçons de mon prof de guitare était surement une bonne idée.


Je vais donc vous exposer le chemin que nous prenons pour apprendre les gammes et les reporter sur le manche d'une manière logique plutôt que par l'étude théorique pure.


Au début, on travaille seulement sur la gamme de DO.


Le tout premier exercice est plutôt mental : savoir déclamer la gamme en montant et en descendant.
  • DO RE MI FA SOL LA SI DO
  • DO SI LA SOL FA MI RE DO



Sur le manche, on ne joue que les 6 premières notes de la gamme, par groupe de 3 notes, en restant sur la corde de Mi grave et la corde de La.
1 = Index
2 = Majeur
4 = Auriculaire
 
 
Code:

E------------------------
B------------------------
G------------------------
D------------------------
A-------------8--10--12--
E--8--10--12-------------
   DO RE  MI  FA SOL LA
   1  2   4   1  2   4








L'important est de travailler au métronome et d'augmenter progressivement le tempo. Il vaut mieux travailler doucement mais correctement. Ce n'est que quand l'exercice est maitrisé qu'on peut monter le tempo. Il est également important de respecter le doigté pour travailler les extensions entre l'index et le majeur. Il faut également veiller à garder les doigts en face de la case à jouer et d'éviter de les lever trop fort. Cela permet d'augmenter la vitesse d'exécution.


L'exercice suivant est basé sur le même modèle mais en partant de la note La et en remontant vers Do.
 
Code:

E------------------------
B------------------------
G------------------------
D------------------------
A--12--10--8-------------
E-------------12--10--8--
   LA  SOL FA MI  RE  DO
   4   2   1  4   2   1




Les mêmes remarque que pour l'exercice précédent s'applique aussi ici.


Quand on est plus ou moins à l'aise avec les 2 exercices, on peut également les déplacer sur la corde de La et la corde de Ré.
Ce qui donne en tablature :
 
Code:


E------------------------
B------------------------
G------------------------
D-------------3--5---7---
A--3--5---7--------------
E------------------------
   DO RE  MI  FA SOL LA
   1  2   4   1  2   4


E------------------------
B------------------------
G------------------------
D--7---5---3-------------
A-------------7---5---3--
E------------------------
   LA  SOL FA MI  RE  DO
   4   2   1  4   2   1




 
Dans cette position, on sent tout de suite l'importance de travailler les extensions. On veillera à respecter également les consignes concernant le placement des doigts


Pour l'exercice suivant, on va faire appel à vos talent de chanteur :-)
En partant de la 8eme case de la corde de Mi grave, on va jouer comme ceci :
 
Code:

E--------------------------------
B--------------------------------
G--------------------------------
D--------------------------------
A-------------8-------10---8---12
E--8--12--10------12-------------
   DO MI  RE  FA  MI  SOL  FA  LA
   1  4   2   1   4   2    1   4




 Le but est de "chanter", à haute voix, DO MI RE FA MI SOL FA LA tout en jouant. Faites toujours attention au placement des doigts et travailler au métronome en augmentant doucement le tempo.


Quand l'exercice commence à bien se placer, faite la même chose mais dans l'autre sens.
 
Code:

E--------------------------------
B--------------------------------
G--------------------------------
D--------------------------------
A--12--8--10-----8--------------
E-------------12----10--12--8---
   LA  FA SOL MI FA RE  MI  DO
   4   1  2   4  1  2   4   1




 A bientôt pour la suite

17/01/2011

Il faudrait maintenant rappeler quelques notions de base concernant la construction d'une gamme majeure ainsi que les principes d'accordage d'une guitare.

Grosso modo, une gamme est une suite de note qui respecte un intervalle (ton ou 1/2ton) bien défini.
Dans le cas de la gamme majeure, intervalle est celui-ci : Ton - Ton - 1/2Ton - Ton - Ton - Ton - 1/2Ton
Ce qui nous donne pour la gamme de Do : 

 
Code:

   + 1ton    + 1ton    + 1/2ton    + 1ton     + 1ton    + 1ton    + 1/2ton
Do        Ré        Mi          Fa        Sol        La        Si          Do


Petit rappel : il y a toujours 1 ton entre les notes sauf pour les notes en "i" (Mi et Si) où il n'y a qu'1/2ton. Sur la guitare, 1 case = 1/2 ton

Les différentes notes qui constituent une gamme portent également un nom symbolique et un degré.
Par exemple, pour notre gamme de Do :
Code:

    1ere note de la gamme : Do    degré I    nom symbolique : Tonique ou Fondamentale
    2eme                    Ré          II                    Seconde
    3eme                    Mi          III                   Tierce
    4eme                    Fa          IV                    Quarte
    5eme                    Sol         V                     Quinte
    6eme                    La          VI                    Sixte
    7eme                    Si          VII                   Septième
    8eme                    Do          IIX                   Octave


L'accordage standard d'une guitare.

Si on regarde maintenant la relation qui existe entre les cordes d'une guitare, on trouve une quasi constante.

En effet, une corde est accordée à la quarte de la corde qui précède sauf la corde de Si qui est accordée à la tierce de la précédente.

Explication :
En partant de la corde la plus grave, la première est accordée en Mi.

La 2eme corde devrait donc être accordée à la quarte (ou degré IV) de la gamme de Mi.
Gamme de Mi simplifiée (càd sans bémol ou dièse ) : Mi Fa Sol La Si Do Ré Mi
Et quelle est la note au 4eme degré de la gamme de Mi : La

La 3eme corde s'accorde donc à la quarte de la gamme de La
Gamme de La simplifiée : La Si Do Mi Fa Sol La
La 3eme corde est donc accordée en Ré

La 4eme corde s'accorde donc à la quarte de la gamme de Ré, soit Sol
Gamme de Ré simplifiée : Ré Mi Fa Sol La Si Do Ré

La 5eme corde est la seule qui ne s'accorde pas à la quarte mais à la tierce de la corde précédente.
Gamme de Sol simplifiée : Sol La Si Do Ré Mi Fa Sol
La 5eme corde s'accorde donc en Si, Si étant la tierce de la gamme de Sol.

La 6eme corde reprend l'accordage en quarte.
Gamme de Si simplifiée : Si Do Ré Mi Fa Sol La Si
La 6eme corde est donc accordée en Mi.


Exclamation Attention : dans notre démonstration, les quartes sont correctes en utilisant les gammes simplifiées.
Ceci n'est pas toujours le cas. Dans la gamme simplifié de Fa (Fa Sol La Si Do Ré Mi Fa), on pourrait facilement croire que la quarte est Si.
En réalité, la quarte juste dans la gamme de Fa est Sib (Si bémol)
Les autres degrés dans les gammes simplifiées ne sont pas justes non plus.

Idea Évidement, ceci n'est pas à apprendre par cœur.
Mais il est très intéressant de savoir que cela existe et probablement qu'un jour, a force de travailler, le rapport entre les cordes et les liaisons avec la gamme se feront naturellement.

23/01/2011

Il serait peut-être temps de passer au groupe de 6 notes suivant.

Le premier groupe de 6 notes s'arrêtait sur un La.  Le 2eme groupe commence donc sur un Si.

 Si Do Re Mi Fa Sol


Comme annoncé en début de post, on va essayé de travailler d'une manière logique pour que notre travail puisse servir à autre chose.
On va donc travailler le 2eme groupe de notes en restant sur les cordes Mi grave et La.
Je demanderai aussi au débutant de ne pas trop vite afficher les spoiler mais de d'abord réfléchir à la position.

En partant de notre position de départ pour le premier groupe, ou vas-t-on trouver un Si sur la corde Mi grave ?
Si est la note qui précède Do, on devrait donc la trouver en remontant vers la tête du manche.


Comme il n'y a qu'1/2 ton entre Si et Do, le Si se trouve donc 1 case avant notre Do de départ, soit en case 7


Maintenant que nous avons trouvé notre position de départ pour le 2eme groupe de notes, passons à la position des notes de notre groupe.

Essayer donc de trouver la position des notes Si - Do - Ré -  Mi - Fa - Sol à partir de la case 7 de Mi grave et en utilisant les 2 premières cordes.


 
Code:

E--------------------------------
B--------------------------------
G--------------------------------
D--------------------------------
A---------------7---8---10-------
E--7---8---10--------------------
   Si  Do  Re   Mi  Fa  Sol
   1   2   4    1   2   4  



Voici donc notre 2eme groupe de notes.
On vas également le travailler comme on a fait avec le premier groupe :
  • en montant de Si vers Sol
  • en descendant de Sol vers Si
  • en alternant les notes et les cordes et en chantant les notes : Si - Ré - Do - Mi - Ré - Fa - Mi - Sol
Bon travail !

Si on suit notre logique, le 3eme groupe de 6 notes commencera donc par un La :  La - Si - Do - Ré - Mi - Fa

Toujours en remontant vers la tête du manche sur la corde Mi grave, on trouve le La sur la case 5.


 
Code:

E-------------------------------
B-------------------------------
G-------------------------------
D-------------------------------
A---------------5---7---8-------
E--5---7---8--------------------
   La  Si  Do  Re   Mi  Fa  
   1   2   3    1   2   3  



Groupe que l'on peut maintenant travailler comme les 2 premiers :
  • en montant de La vers Fa
  • en descendant de Fa vers La
  • en alternant les notes et les cordes et en chantant les notes : La - Do - Si - Re - Do - Mi - Re -Fa
Bon travail !

Continuons avec le groupe suivant qui commencera donc par un Sol  :  Sol - La - Si - Do - Ré - Mi
Pas de problème particulier pour le doigté si ce n'est que les cases sont de plus en plus large et que l'extension entre l'index et le majeur devient plus difficile.

Sur la corde de Mi grave, le Sol se trouve donc en case 3.

On aura donc comme doigté :
Code:

E-------------------------------
B-------------------------------
G-------------------------------
D-------------------------------
A---------------3---5---7-------
E--3---5---7--------------------
   Sol La  Si   Do  Re  Mi  
   1   2   4    1   2   4  




Le groupe de 6 notes suivant commence sur la note Fa : Fa - Sol - La - Si - Do - Ré
Le Fa se trouve en case 1. 
A vous de voir le doigté, je vous met la réponse en spoiler.


 Petite subtilité donc sur ce doigté
Code:

E-------------------------------
B-------------------------------
G-------------------------------
D-------------------------------
A--------------2---3---5--------
E--1---3---5--------------------
   Fa  Sol La  Si  Do  Re  
   1   2   4   1   2   4  





Nous avons ensuite le groupe de 6 notes commençant par la note Mi : Mi - Fa - Sol - La - Si - Do
Évidemment, il n'est plus question question de remonter vers la tête du manche Mr. Green

On va donc aller chercher le Mi sur la 12eme case de la corde Mi grave.
Il y a encore une subtilité sur ce doigté.  Pouvez-vous la trouver ?


Code:

E-------------------------------
B-------------------------------
G-------------------------------
D-------------------------------
A--------------12--14--15-------
E--12--13--15-------------------
   Mi  Fa  Sol La  Si  Do    
   1   2   4   1   3   4  




Et voici venu le dernier groupe de 6 notes commençant donc par la note Ré : Ré - Mi - Fa - Sol - La - Si
Le doigté commencera en case 10 sur la corde Mi grave.
Tout comme le doigté précédent, il a une petite subtilité que je vous laisse découvrir.


Code:

E-------------------------------
B-------------------------------
G-------------------------------
D-------------------------------
A--------------10--12--14-------
E--10--12--13-------------------
   Ré  Mi  Fa  Sol La  Si     
   1   2   3   1   2   4  





Voila, nous avons fait le tour de toute les positions qui nous serviront à construire les schémas de toutes les gammes.

Avec les 7 schémas, appliqués à partir d'une certaine note et dans un certain ordre, vous serez capables de jouer à peu près n'importe quelle gamme ou mode de gamme.
Je vous expliquerai cela un peu plus tard.

Récapitulatif des 7 schémas


 Les schémas pouvant s'appliquer à partir de quasi n'importe quel endroit sur le manche, je vous les mets sans notion de corde ou de case, uniquement quel doigt dans quelle case.

Code:

1er schéma
!-1-!---!-2-!---!-4-!
!-1-!---!-2-!---!-4-!

2eme
!-1-!-2-!---!-4-!---!
!-1-!-2-!---!-4-!---!

3eme
!-1-!---!-2-!-3-!---!
!-1-!---!-2-!-3-!---!
 
4eme
!-1-!---!-2-!---!-4-!
!-1-!---!-2-!---!-4-!
 
5eme
!---!-1-!-2-!---!-4-!
!-1-!---!-2-!---!-4-!
 
6eme
!-1-!---!-3-!-4-!---!
!-1-!-2-!---!-4-!---!
 
7eme
!-1-!---!-2-!---!-4-!
!-1-!---!-2-!-3-!---!
 


Salut,
Ca fait bien longtemps que je n'ai pas mis ce sujet à jour.

On va continuer nos gammes en travaillant maintenant sur 4 cordes.

En partant de la case 8, comme notre premier schéma, on va descendre de 2 cordes et prendre le 2eme schéma en shiftant d'une case, ce qui donne :

 
Code:

Les 2 schémas superposé : 
!---!-1-!-2-!---!-4-!---!
!---!-1-!-2-!---!-4-!---! 
!-1-!---!-2-!---!-4-!---!
!-1-!---!-2-!---!-4-!---!

ou encore

E---------------------------------------------
B---------------------------------------------
G----------------------------------9--10-12---
D------------------------9--10-12-------------
A-------------8--10--12-----------------------
E--8--10--12----------------------------------
   DO RE  MI  FA SOL LA  SI DO RE  MI FA SOL
   1  2   4   1  2   4   1  2  4   1  2  4



Le principe vas rester a peu près le même avec les autres schémas, c'est à dire que pour jouer les 2 cordes suivantes, on prendra le schémas suivant avec ou sans shift.


 Voici la continuation pour le schéma n° 2 à partir de la case 7 en combinaison avec le schéma 3 sans shift

Code:

!-1-!---!-2-!-3-!---!
!-1-!---!-2-!-3-!---!
!-1-!-2-!---!-4-!---!
!-1-!-2-!---!-4-!---!

E----------------------------------------------------
B----------------------------------------------------
G---------------------------------------7---9----10--
D---------------------------7---9---10---------------
A---------------7---8---10---------------------------
E--7---8---10----------------------------------------
   Si  Do  Re   Mi  Fa  Sol La  Si  Do  Re   Mi  Fa
   1   2   4    1   2   4   1   2   3   1    2   3



Schéma n°3 avec schéma 4

 

Code:

!-1-!---!-2-!---!-4-!
!-1-!---!-2-!---!-4-!
!-1-!---!-2-!-3-!---!
!-1-!---!-2-!-3-!---!

E-------------------------------------------------
B-------------------------------------------------
G--------------------------------------5---7---9--
D--------------------------5---7---9--------------
A---------------5---7---8-------------------------
E--5---7---8--------------------------------------
   La  Si  Do  Re   Mi  Fa Sol La  Si  Do  Re  Mi
   1   2   3    1   2   3  1   2   4   1   2   4



Schéma n°4 avec schéma 5
 
Code:

!---!-1-!-2-!---!-4-!
!-1-!---!-2-!---!-4-!
!-1-!---!-2-!---!-4-!
!-1-!---!-2-!---!-4-! 

E---------------------------------------------
B---------------------------------------------
G------------------------------------4--5--7--
D--------------------------3--5---7-----------
A---------------3---5---7---------------------
E--3---5---7----------------------------------
   Sol La  Si   Do  Re  Mi Fa Sol La Si Do Re
   1   2   4    1   2   4  1  2   4  1  2  4


Schéma n°5 avec schéma 6 (avec shift)

 
Code:

!---!-1-!---!-3-!-4-!---!
!---!-1-!-2-!---!-4-!---!
!---!-1-!-2-!---!-4-!---!
!-1-!---!-2-!---!-4-!---!

E--------------------------------------------
B--------------------------------------------
G-----------------------------------2--4--5--
D-------------------------2--3--5------------
A--------------2---3---5---------------------
E--1---3---5---------------------------------
   Fa  Sol La  Si  Do  Re Mi Fa Sol La Si Do 
   1   2   4   1   2   4  1  2  4   1  3  4



Schéma n°6 avec schéma 7

 
Code:

!-1-!---!-2-!---!-4-!
!-1-!---!-2-!-3-!---!
!-1-!---!-3-!-4-!---!
!-1-!-2-!---!-4-!---!

E---------------------------------------------
B---------------------------------------------
G----------------------------------12--14-16--
D-------------------------12-14-15------------
A--------------12--14--15---------------------
E--12--13--15---------------------------------
   Mi  Fa  Sol La  Si  Do Re Mi Fa Sol La Si   
   1   2   4   1   3   4  1  2  3  1   2  4


Schéma n°7 avec schéma ..... 1

 
Code:

!-1-!---!-2-!---!-4-!
!-1-!---!-2-!---!-4-!
!-1-!---!-2-!---!-4-!
!-1-!---!-2-!-3-!---! 

E---------------------------------------------
B---------------------------------------------
G----------------------------------10-12--14--
D-------------------------10-12-14------------
A--------------10--12--14---------------------
E--10--12--13---------------------------------
   Ré  Mi  Fa  Sol La  Si Do Re Mi Fa Sol La    
   1   2   3   1   2   4  



A vos guitare !

Voici venu le moment de passer sur 6 cordes.

Le principe sera le même que lors du passage sur 4 cordes, on prend le schéma suivant dans la liste.

Pour le premier schéma à partir de la 8eme case, cela donnera donc

 
Code:

Les 3 schémas superposé : 
!---!---!-1-!---!-2-!-3-!---!
!---!---!-1-!---!-2-!-3-!---!
!---!-1-!-2-!---!-4-!---!---!
!---!-1-!-2-!---!-4-!---!---!
!-1-!---!-2-!---!-4-!---!---!
!-1-!---!-2-!---!-4-!---!---!

ou encore

E-----------------------------------------------------10-12-14-
B--------------------------------------------10-12-14----------
G----------------------------------9--10-12--------------------
D------------------------9--10-12------------------------------
A-------------8--10--12----------------------------------------
E--8--10--12---------------------------------------------------
   DO RE  MI  FA SOL LA  SI DO RE  MI FA SOL LA SI DO RE MI FA
   1  2   4   1  2   4   1  2  4   1  2  4 


Nous voici donc avec une gamme de Do majeur jouée sur 6 cordes

Voici la continuation pour le schéma n° 2 à partir de la case 7 en combinaison avec les schémas 3 et 4

Code:

!---!-1-!---!-2-!---!-4-!
!---!-1-!---!-2-!---!-4-!
!-1-!---!-2-!-3-!---!---!
!-1-!---!-2-!-3-!---!---!
!-1-!-2-!---!-4-!---!---!
!-1-!-2-!---!-4-!---!---!

E----------------------------------------------------------8--10-12-
B------------------------------------------------8---10-12----------
G---------------------------------------7--9--10--------------------
D---------------------------7---9---10------------------------------
A---------------7---8---10------------------------------------------
E--7---8---10-------------------------------------------------------
   Si  Do  Re   Mi  Fa  Sol La  Si  Do  Re Mi Fa Sol La Si Do Re Mi
   1   2   4    1   2   4   1   2   3   1  2  3  1   2  4  1  2  4



Schéma n°3 avec schéma 4 et 5

 
Code:

!---!---!-1-!-2-!---!-4-!
!---!-1-!---!-2-!---!-4-!
!-1-!---!-2-!---!-4-!---!
!-1-!---!-2-!---!-4-!---!
!-1-!---!-2-!-3-!---!---!
!-1-!---!-2-!-3-!---!---!

E-----------------------------------------------------------7--8--10-
B-------------------------------------------------6--8---10----------
G--------------------------------------5---7---9---------------------
D--------------------------5---7---9---------------------------------
A---------------5---7---8--------------------------------------------
E--5---7---8---------------------------------------------------------
   La  Si  Do  Re   Mi  Fa Sol La  Si  Do  Re  Mi Fa Sol La Si Do Re
   1   2   3    1   2   3  1   2   4   1   2   4



Schéma n°4 avec schéma 5 et 6
 
Code:

!---!---!-1-!---!-3-!-4-!---!
!---!---!-1-!-2-!---!-4-!---!
!---!-1-!-2-!---!-4-!---!---!
!-1-!---!-2-!---!-4-!---!---!
!-1-!---!-2-!---!-4-!---!---!
!-1-!---!-2-!---!-4-!---!---!

E-------------------------------------------------------5--7--8--
B---------------------------------------------5--6--8------------
G------------------------------------4--5--7---------------------
D--------------------------3--5---7------------------------------
A---------------3---5---7----------------------------------------
E--3---5---7-----------------------------------------------------
   Sol La  Si   Do  Re  Mi Fa Sol La Si Do Re Mi Fa Sol La Si Do
   1   2   4    1   2   4  1  2   4  1  2  4


Schéma n°5 avec schéma 6 et 7

 
Code:

!---!---!-1-!---!-2-!---!-4-!
!---!---!-1-!---!-2-!-3-!---!
!---!-1-!---!-3-!-4-!---!
!---!-1-!-2-!---!-4-!---!
!---!-1-!-2-!---!-4-!---!
!-1-!---!-2-!---!-4-!---!

E-----------------------------------------------------3---5--7--
B--------------------------------------------3--5--6------------
G-----------------------------------2--4--5---------------------
D-------------------------2--3--5-------------------------------
A--------------2---3---5----------------------------------------
E--1---3---5----------------------------------------------------
   Fa  Sol La  Si  Do  Re Mi Fa Sol La Si Do Re Mi Fa Sol La Si
   1   2   4   1   2   4  1  2  4   1  3  4



Schéma n°6 avec schéma 7 et 1

 
Code:

!---!-1-!---!-2-!---!-4-!
!---!-1-!---!-2-!---!-4-!
!-1-!---!-2-!---!-4-!---!
!-1-!---!-2-!-3-!---!---!
!-1-!---!-3-!-4-!---!---!
!-1-!-2-!---!-4-!---!---!

E-----------------------------------------------------13-15--17-
B--------------------------------------------13-15-17-----------
G----------------------------------12--14-16--------------------
D-------------------------12-14-15------------------------------
A--------------12--14--15---------------------------------------
E--12--13--15---------------------------------------------------
   Mi  Fa  Sol La  Si  Do Re Mi Fa Sol La Si Do Re Mi Fa Sol La
   1   2   4   1   3   4  1  2  3  1   2  4


Schéma n°7 avec schéma 1 et 2

 
Code:

!---!---!-1-!-2-!---!-4-!---!
!---!---!-1-!-2-!---!-4-!---!
!-1-!---!-2-!---!-4-!
!-1-!---!-2-!---!-4-!
!-1-!---!-2-!---!-4-!
!-1-!---!-2-!-3-!---! 

E-----------------------------------------------------12-13-15--
B--------------------------------------------12-13-15-----------
G----------------------------------10-12--14--------------------
D-------------------------10-12-14------------------------------
A--------------10--12--14---------------------------------------
E--10--12--13---------------------------------------------------
   Ré  Mi  Fa  Sol La  Si Do Re Mi Fa Sol La Si Do Re Mi Fa Sol
   1   2   3   1   2   4  1  2  4  1  2   4  1  2  4  1  2  4





Voici donc comment, avec nos 7 schémas de base, on est parvenu a faire 7 gammes différentes sur 6 cordes.

 
Code:

 1er schéma
!-1-!---!-2-!---!-4-!
!-1-!---!-2-!---!-4-!

2eme
!-1-!-2-!---!-4-!---!
!-1-!-2-!---!-4-!---!

3eme
!-1-!---!-2-!-3-!---!
!-1-!---!-2-!-3-!---!
 
4eme
!-1-!---!-2-!---!-4-!
!-1-!---!-2-!---!-4-!
 
5eme
!---!-1-!-2-!---!-4-!
!-1-!---!-2-!---!-4-!
 
6eme
!-1-!---!-3-!-4-!---!
!-1-!-2-!---!-4-!---!
 
7eme
!-1-!---!-2-!---!-4-!
!-1-!---!-2-!-3-!---!








 
Code:

Les 7 gammes construites autour des schémas.

1.
!---!---!-1-!---!-2-!-3-!---!
!---!---!-1-!---!-2-!-3-!---!
!---!-1-!-2-!---!-4-!---!---!
!---!-1-!-2-!---!-4-!---!---!
!-1-!---!-2-!---!-4-!---!---!
!-1-!---!-2-!---!-4-!---!---!

2.
!---!-1-!---!-2-!---!-4-!
!---!-1-!---!-2-!---!-4-!
!-1-!---!-2-!-3-!---!---!
!-1-!---!-2-!-3-!---!---!
!-1-!-2-!---!-4-!---!---!
!-1-!-2-!---!-4-!---!---!

3.
!---!---!-1-!-2-!---!-4-!
!---!-1-!---!-2-!---!-4-!
!-1-!---!-2-!---!-4-!---!
!-1-!---!-2-!---!-4-!---!
!-1-!---!-2-!-3-!---!---!
!-1-!---!-2-!-3-!---!---!

4.
!---!---!-1-!---!-3-!-4-!---!
!---!---!-1-!-2-!---!-4-!---!
!---!-1-!-2-!---!-4-!---!---!
!-1-!---!-2-!---!-4-!---!---!
!-1-!---!-2-!---!-4-!---!---!
!-1-!---!-2-!---!-4-!---!---!

5.
!---!---!-1-!---!-2-!---!-4-!
!---!---!-1-!---!-2-!-3-!---!
!---!-1-!---!-3-!-4-!---!
!---!-1-!-2-!---!-4-!---!
!---!-1-!-2-!---!-4-!---!
!-1-!---!-2-!---!-4-!---!

6.
!---!-1-!---!-2-!---!-4-!
!---!-1-!---!-2-!---!-4-!
!-1-!---!-2-!---!-4-!---!
!-1-!---!-2-!-3-!---!---!
!-1-!---!-3-!-4-!---!---!
!-1-!-2-!---!-4-!---!---!

7.
!---!---!-1-!-2-!---!-4-!---!
!---!---!-1-!-2-!---!-4-!---!
!-1-!---!-2-!---!-4-!
!-1-!---!-2-!---!-4-!
!-1-!---!-2-!---!-4-!
!-1-!---!-2-!-3-!---! 



En fait, les 7 gammes ne nous avons construites ne sont ni plus ni moins que les 7 modes de la gamme de Do
Gamme n° 1 : mode Ionien
Gamme n° 2 : mode Locrien
Gamme n° 3 : mode Eolien
Gamme n° 4 : mode Myxolidien
Gamme n° 5 : mode Lydien
Gamme n° 6 : mode Phrygien
Gamme n° 7 : mode Dorien
_________________
Jouer de la guitare c'est comme faire l'amour: il faut vraiment être stupide pour oublier comment on fait une fois qu'on l'a appris. (Frank Zappa)


Dernière édition par SkyPhil le Jeu 10 Mar 2011 - 21:33; édité 18 fois
Revenir en haut
Publicité






MessagePosté le: Dim 16 Jan 2011 - 18:53    Sujet du message: Publicité

PublicitéSupprimer les publicités ?
Revenir en haut
quelconque
Trois cordes
Trois cordes

Hors ligne

Inscrit le: 10 Aoû 2009
Messages: 393
Localisation: Rhône
Masculin
Niveau de guitare: Gloups
Point(s): 0
Moyenne de points: 0

MessagePosté le: Dim 16 Jan 2011 - 19:31    Sujet du message: Débutants : commencer à jouer les gammes Répondre en citant

SkyPhil tu as ton premier élève Wink
Es-tu déjà beaucoup plus loin dans le cours ou nous le livres-tu au fur et à mesure?
_________________
Sommaire des cours du forum Les cours de guitare de six-cordes
   suǝs uoq ǝl suɐp ǝpuoɯ ǝl zǝpɹɐƃǝɹ
Revenir en haut
Ett
Trois cordes
Trois cordes

Hors ligne

Inscrit le: 10 Déc 2010
Messages: 260
Localisation: On the moon
Masculin Poissons (20fev-20mar) 馬 Cheval
Niveau de guitare: Débutant
Point(s): 0
Moyenne de points: 0

MessagePosté le: Dim 16 Jan 2011 - 19:34    Sujet du message: Débutants : commencer à jouer les gammes Répondre en citant

Parfait ces petits exercices qui permet de suivre un certain "fil" (ou plutôt devrais-je dire "phil" ? Very Happy ) dans son apprentissage Smile
Merci beaucoup SkyPhil !


Je vais ajouter ça à ma petite liste d'exercice !
Ça peut-être aussi sympa pour s'échauffer les doigts ce genre d'exo non ?
Revenir en haut
SkyPhil
Trois cordes
Trois cordes

Hors ligne

Inscrit le: 14 Juin 2009
Messages: 165
Localisation: Namur
Masculin Lion (24juil-23aoû) 猴 Singe
Niveau de guitare: houla ! sans comment
Point(s): 0
Moyenne de points: 0

MessagePosté le: Dim 16 Jan 2011 - 20:05    Sujet du message: Débutants : commencer à jouer les gammes Répondre en citant

Je suis déjà plus loin dans le cour.
Ma fille commence tout doucement cette partie et en préparant un support pour elle, je me suis dit que je pouvais aussi vous en faire profiter.

Et effectivement, ce n'est pas mal comme échauffement. Attention seulement a ne pas forcer sur les extensions à froid.
_________________
Jouer de la guitare c'est comme faire l'amour: il faut vraiment être stupide pour oublier comment on fait une fois qu'on l'a appris. (Frank Zappa)
Revenir en haut
Ara
Une corde
Une corde

Hors ligne

Inscrit le: 14 Jan 2011
Messages: 36
Localisation: Caen
Féminin Scorpion (23oct-21nov)
Niveau de guitare: débutant/janvier 201
Point(s): 0
Moyenne de points: 0

MessagePosté le: Dim 16 Jan 2011 - 20:35    Sujet du message: Débutants : commencer à jouer les gammes Répondre en citant

merci phil pour ce topic
vu que je débute tout juste, cela me sera d"une grande aide 

_________________
Les amateurs de musique ont ceci de pénible qu'ils nous demandent toujours d'être totalement muets au moment même où nous souhaiterions être absolument sourds - [Oscar Wilde]
Revenir en haut
SkyPhil
Trois cordes
Trois cordes

Hors ligne

Inscrit le: 14 Juin 2009
Messages: 165
Localisation: Namur
Masculin Lion (24juil-23aoû) 猴 Singe
Niveau de guitare: houla ! sans comment
Point(s): 0
Moyenne de points: 0

MessagePosté le: Dim 23 Jan 2011 - 13:06    Sujet du message: Débutants : commencer à jouer les gammes Répondre en citant

Je viens d'ajouter le 2eme groupe de notes.

Bon travail !
_________________
Jouer de la guitare c'est comme faire l'amour: il faut vraiment être stupide pour oublier comment on fait une fois qu'on l'a appris. (Frank Zappa)
Revenir en haut
SkyPhil
Trois cordes
Trois cordes

Hors ligne

Inscrit le: 14 Juin 2009
Messages: 165
Localisation: Namur
Masculin Lion (24juil-23aoû) 猴 Singe
Niveau de guitare: houla ! sans comment
Point(s): 0
Moyenne de points: 0

MessagePosté le: Dim 23 Jan 2011 - 23:05    Sujet du message: Débutants : commencer à jouer les gammes Répondre en citant

Les 7 positions sont disponibles.  
A vous de les travailler au mieux.
_________________
Jouer de la guitare c'est comme faire l'amour: il faut vraiment être stupide pour oublier comment on fait une fois qu'on l'a appris. (Frank Zappa)
Revenir en haut
minipanda
6 cordes
6 cordes

Hors ligne

Inscrit le: 16 Déc 2010
Messages: 1 948
Localisation: Derrière mes yeux
Féminin Capricorne (22déc-19jan)
Niveau de guitare: En progrès!
Point(s): 0
Moyenne de points: 0

MessagePosté le: Mar 25 Jan 2011 - 19:59    Sujet du message: Débutants : commencer à jouer les gammes Répondre en citant

Merci beaucoup pour ce travail!
_________________
https://www.facebook.com/onirik.illusion?ref=bookmarks
Revenir en haut
quelconque
Trois cordes
Trois cordes

Hors ligne

Inscrit le: 10 Aoû 2009
Messages: 393
Localisation: Rhône
Masculin
Niveau de guitare: Gloups
Point(s): 0
Moyenne de points: 0

MessagePosté le: Mar 25 Jan 2011 - 20:02    Sujet du message: Débutants : commencer à jouer les gammes Répondre en citant

Okay
_________________
Sommaire des cours du forum Les cours de guitare de six-cordes
   suǝs uoq ǝl suɐp ǝpuoɯ ǝl zǝpɹɐƃǝɹ
Revenir en haut
Gribouille31
Administrateur

Hors ligne

Inscrit le: 24 Oct 2008
Messages: 2 953
Localisation: Toulouse
Féminin
Niveau de guitare: depuis juin 2008
Point(s): 0
Moyenne de points: 0

MessagePosté le: Lun 21 Nov 2011 - 10:21    Sujet du message: Débutants : commencer à jouer les gammes Répondre en citant

déplacé, post-ité.
merci beaucoup pour la contribution et désolée pour le retard !!!
_________________
Petit à petit on devient moins petit...
Exclamation Sommaire des cours du forum Exclamation
Revenir en haut
Visiter le site web du posteur
serumam
Une corde
Une corde

Hors ligne

Inscrit le: 18 Aoû 2012
Messages: 9
Localisation: brux
Masculin
Niveau de guitare: bof bof
Point(s): 0
Moyenne de points: 0

MessagePosté le: Sam 18 Aoû 2012 - 16:34    Sujet du message: Débutants : commencer à jouer les gammes Répondre en citant

c'est toujours mis a jour ?
En tout cas c'est super ! 
_________________
http://issuu.com/alexandrenoel/docs/anoel
Revenir en haut
Visiter le site web du posteur
guitaristeman
Une corde
Une corde

Hors ligne

Inscrit le: 28 Oct 2011
Messages: 42
Localisation: paris
Masculin
Niveau de guitare: débutant
Point(s): 0
Moyenne de points: 0

MessagePosté le: Lun 27 Aoû 2012 - 16:09    Sujet du message: Débutants : commencer à jouer les gammes Répondre en citant

merci beaucoup pour ton partage
_________________
une bonne guitare c est bien,un bon guitariste c est mieux
Revenir en haut
Contenu Sponsorisé






MessagePosté le: Aujourd’hui à 03:27    Sujet du message: Débutants : commencer à jouer les gammes

Revenir en haut
Montrer les messages depuis:   
Poster un nouveau sujet   Répondre au sujet    six.cordes : les cours de guitare Index du Forum -> Apprendre et comprendre la guitare -> Le solfège : apprendre et comprendre -> Les cours de solfège du forum Toutes les heures sont au format GMT + 1 Heure
Page 1 sur 1

 
Sauter vers:  

Portail | Index | créer un forum | Forum gratuit d’entraide | Annuaire des forums gratuits | Signaler une violation | Conditions générales d'utilisation
Powered by phpBB © 2001, 2005 phpBB Group
Logo by mide.be