six.cordes : les cours de guitare Forum Index

Forum de discussions sur l'apprentissage et les cours de guitare en général.
 
six.cordes : les cours de guitare Forum IndexFAQSearchMemberlistUsergroupsProfileRegisterLog in

Picking 6 Basses alternées suite

 
Post new topic   Reply to topic    six.cordes : les cours de guitare Forum Index -> Apprendre et comprendre la guitare -> Comment apprendre la guitare ? - FAQ -> Les cours de guitare du forum
Previous topic :: Next topic  
Author Message
pefmo
Guest

Offline




PostPosted: Sun 6 Dec 2009 - 22:05    Post subject: Picking 6 Basses alternées suite Reply with quote

Picking 6 Basses alternées suite avec la ligne Holworth


On continue les basses alternées … avec ou sans onglet de pouce !

Ici on avait vu comment faire uniquement les 3 basses
http://cours-de-guitare.cforum.info/t4307-PICKING-2-les-basses-alternees.ht…

maintenant, on va ajouter une mélodie avec les autres cordes !

On continue à alterner les basses,

Mais en plus, on va alterner aussi en jouant une note seule ou 2 notes ensemble,

Ce qui donne pour la main droite,

Pouce seul ou doigt seul ou pouce avec et un autre doigt !

L’autre doigt,
C’est l’index si on doit jouer la corde de sol
C’est le majeur si on doit jouer la corde de si
C’est l’annulaire si on doit jouer la corde de mi aigu

Tout cela est indiqué d’une manière générale !

Car en fait, on va suivre la partition … !


On attaque donc un standard du traditionnel folk,

la ligne Holworth de Graeme Allwright …

Voici donc une version un peu simplifiée, mais yen a des centaines d’autres …

La vidéo



l’originale :




la tablature :


E|------0--------------------|------------------------------|---------------------------|
B|------------------3--------|-1-----------0----------------|------------------0--------|
G|-2--------2----------------|-----2---------------2--------|-0--------2----------------|
D|------2---------------2----|---------2---------------2----|------0---------------0----|
A|-0-------------------------|-0----------------------------|---------------------------|
E|--------------0------------|-----------------0------------|-3------------3------------|


E|----------------------------|-----------------------------|------0--------------------|
B|------1-----------1---------|------1-----------1----------|------------------3--------|
G|----------2---------------2-|----------2---------------2--|----------2----------------|
D|------2---------------2-----|------2---------------2------|------2---------------2----|
A|-0--------------------------|-0---------------------------|-0-------------------------|
E|--------------0-------------|--------------0--------------|--------------0------------|


E|----------------------------|-----------------------------|-0-------------------------|
B|-1-----------0--------------|-3-----------1-------3-------|-----1---------------1-----|
G|-----2---------------2------|-----0-----------------------|-------------2-----------2-|
D|---------2---------------2--|---------0---------------0---|---------2-----------------|
A|-0--------------------------|-----------------------------|-0-------------------------|
E|-----------------0----------|-3---------------3-----------|-----------------0---------|


E|----------------------------|-----------------------------|---------------------------|
B|-3-----------0--------------|------1-----------1----------|-----1-----------1---------|
G|-----0---------------0------|-2--------2---------------2--|---------2---------------2-|
D|---------0---------------0--|------2---------------2------|-----2---------------2-----|
A|----------------------------|-0---------------------------|-0-------------------------|
E|-3---------------3----------|--------------0--------------|-------------0-------------|



Je viens de l’apprendre, je ne suis pas encore assez à l’aise pour chanter dessus … plus tard sûrement !

Bon picking, à plus !
Back to top
Publicité






PostPosted: Sun 6 Dec 2009 - 22:05    Post subject: Publicité

PublicitéSupprimer les publicités ?
Back to top
Gribouille31
Administrateur

Offline

Joined: 24 Oct 2008
Posts: 2,953
Localisation: Toulouse
Féminin
Niveau de guitare: depuis juin 2008
Point(s): 0
Moyenne de points: 0

PostPosted: Mon 15 Feb 2010 - 10:41    Post subject: Picking 6 Basses alternées suite Reply with quote

ah mais oui mais si tu caches ça dans Vos interprétations on ne va pas s'en sortir  Very Happy !!! je crois que je n'ai rien oublié cette fois, ou bien il reste des cours non rangés ?

en tout cas merci BEAUCOUP pour tout ce que tu fais Smile !!!
_________________
Petit à petit on devient moins petit...
Exclamation Sommaire des cours du forum Exclamation
Back to top
Visit poster’s website
K-mille
5 cordes
5 cordes

Offline

Joined: 21 Jun 2007
Posts: 1,297
Localisation: Paris
Féminin 鼠 Rat
Niveau de guitare: débutante débrouillé
Point(s): 0
Moyenne de points: 0

PostPosted: Wed 17 Feb 2010 - 15:58    Post subject: Picking 6 Basses alternées suite Reply with quote

merci pefmo !!
_________________
Back to top
Contenu Sponsorisé






PostPosted: Today at 23:32    Post subject: Picking 6 Basses alternées suite

Back to top
Display posts from previous:   
Post new topic   Reply to topic    six.cordes : les cours de guitare Forum Index -> Apprendre et comprendre la guitare -> Comment apprendre la guitare ? - FAQ -> Les cours de guitare du forum All times are GMT + 1 Hour
Page 1 of 1

 
Jump to:  

Index | Forum hosting | Free support forum | Free forums directory | Report a violation | Conditions générales d'utilisation
Powered by phpBB © 2001, 2005 phpBB Group
Logo by mide.be