six.cordes : les cours de guitare Index du Forum

Forum de discussions sur l'apprentissage et les cours de guitare en général.
 
six.cordes : les cours de guitare Index du ForumFAQRechercherMembresGroupesProfilS’enregistrerConnexion

Picking 4 Basses alternées suite

 
Poster un nouveau sujet   Répondre au sujet    six.cordes : les cours de guitare Index du Forum -> Apprendre et comprendre la guitare -> Comment apprendre la guitare ? - FAQ -> Les cours de guitare du forum
Sujet précédent :: Sujet suivant  
Auteur Message
pefmo
Invité

Hors ligne




MessagePosté le: Dim 11 Oct 2009 - 21:51    Sujet du message: Picking 4 Basses alternées suite Répondre en citant

On continue les basses alternées … avec ou sans onglet de pouce !

Ici on avait vu comment faire uniquement les 3 basses
http://cours-de-guitare.cforum.info/t4307-PICKING-2-les-basses-alternees.ht…

maintenant, on va ajouter une mélodie avec les autres cordes !

On continue à alterner les basses,

Mais en plus, on va alterner aussi en jouant une note seule puis 2 notes ensemble,

Ce qui donne pour la main droite,

Pouce seul puis pouce avec un autre doigt et on recommence !

L’autre doigt,
C’est l’index si on doit jouer la corde de sol
C’est le majeur si on doit jouer la corde de si
C’est l’annulaire si on doit jouer la corde de mi aigu

Tout cela est indiqué d’une manière générale !

Car en fait, on va suivre la partition … !

On attaque donc un standard du traditionnel folk,

Freight train …

Voici donc ma version, mais yen a des centaines d’autres …

La vidéo





ne vous occupez pas de mon capodastre ...
ma guitare est accordée un ton en dessous, ré sol do fa la ré avec des cordes médium ...
le capodastre en deuxième case me permet de sonner comme vous en accordage standard !


la tablature :




Code:

un petit pont, à mettre au début ou entre les couplets...
                 
e|-------------
B|------------
G|------------
D|------------
A|---- 2--0-
E|--3--------
               

on attaque par un espèce de sol modifié

e|----3---------0--------------------------------------------3--------1----------|
B|------------------------3--------1--------0------------------------------------|
G|--------------------------------------------------------------------------------|
D|---------2--------2---------2------2---------0--------------0-------0------0-|
A|---3-------------------3-------------------------------------------------------|
E|-------------3------------------3--------3---------3-------------3------3-----|
                 

on continue avec un do

e|----3---------1--------0-------------------------------------3---------0-----------------|
B|-----------------------------------3-----------1------------------------------------------|
G|-------------------------------------------------------------------------------------------|
D|---------2--------2---------0----------0-----------2-------------2---------------0----1-|
A|-----------------------------------------------3------------------------3-----3-----------|
E|---0---------0--------3----------3----------------------3--------------------------------|
                


on continue avec un fa  

e|----0-------------1--------0-------------------------------------------------------|
B|--------------------------------------3po0-----1--------------3-----------1------|
G|-----------------------------------------------------------------------------------|
D|--------2------------2---------2--------------------3--------------3----------3--|
A|------------------------------------------------------------------------------------|
E|---0---------0-------------0---------0---------1--------1-----------------1-------|
                


après le fa, encore un do...et le final

e|-----------------0-------------------------------------1---------0-----------------|
B|----3----------------------1----------------0---------------------------3----1----|
G|-------------------------------------2----------------------------------------------|
D|---------3-----------2---------2----------------------------------------0----------|
A|----------------3-------------------------------------------------------------3-----|
E|---1----------------------3----------3----------3---------3------------------------|





allez, bon courage !
Revenir en haut
Publicité






MessagePosté le: Dim 11 Oct 2009 - 21:51    Sujet du message: Publicité

PublicitéSupprimer les publicités ?
Revenir en haut
six.cordes
Administrateur

Hors ligne

Inscrit le: 15 Juin 2007
Messages: 4 426
Localisation: Geneva
Masculin Capricorne (22déc-19jan)
Niveau de guitare: Reprends des forces
Point(s): 0
Moyenne de points: 0

MessagePosté le: Mar 10 Nov 2009 - 20:28    Sujet du message: Picking 4 Basses alternées suite Répondre en citant

C'est excellent, bravo pour ta contribution ! 
_________________
www.six-cordes.com

http://www.facebook.com/6cordes

"Be the change you want to see in the world". M. Gandhi
Revenir en haut
Visiter le site web du posteur
Contenu Sponsorisé






MessagePosté le: Aujourd’hui à 17:36    Sujet du message: Picking 4 Basses alternées suite

Revenir en haut
Montrer les messages depuis:   
Poster un nouveau sujet   Répondre au sujet    six.cordes : les cours de guitare Index du Forum -> Apprendre et comprendre la guitare -> Comment apprendre la guitare ? - FAQ -> Les cours de guitare du forum Toutes les heures sont au format GMT + 1 Heure
Page 1 sur 1

 
Sauter vers:  

Portail | Index | créer un forum | Forum gratuit d’entraide | Annuaire des forums gratuits | Signaler une violation | Conditions générales d'utilisation
Powered by phpBB © 2001, 2005 phpBB Group
Logo by mide.be