six.cordes : les cours de guitare Forum Index

Forum de discussions sur l'apprentissage et les cours de guitare en général.
 
six.cordes : les cours de guitare Forum IndexFAQSearchMemberlistUsergroupsProfileRegisterLog in

dueling banjo délivrance en version lente

 
Post new topic   Reply to topic    six.cordes : les cours de guitare Forum Index -> A vous de jouer -> Vos œuvres -> Vos interprétations
Previous topic :: Next topic  
Author Message
pefmo
Guest

Offline




PostPosted: Sun 19 Jul 2009 - 22:48    Post subject: dueling banjo délivrance en version lente Reply with quote

voici une occasion de jouer dueling banjo de délivrance avec moi !!

la version d'origine est plus lente au début, et beaucoup plus rapide à la fin ...

http://www.youtube.com/watch?v=i6jraVFrQ7g

j'ai choisi d'être entre les deux mais suffisamment lent pour 2 raisons :
pour que même les débutants se fassent plaisir,
et parce que j'ai du mal à aller plus vite sans pain au banjo !!!


Voici ce que ça doit donner :





Voici la tab : pas de difficultés …

E|--------------------------------------------------------------||
B|--------------------------------------------------------------||
G|------------------------------------------------------0------||
D|---------------0------------------------------0-2-3---3-2--||
A|--------0-2-3---3-2------------------3-3-3----------------||
E|-3-3-3-------------------------------------------------------||


E|----------------------------------------------------||
B|----------------------------------------------------||
G|-----------------------------------------0-2-0----||
D|----------------0-----------0-0-0-2-4--------4--||
A|---------0-2-3---3-2-----------------------------||
E|--3-3-3-------------------------------------------||


E|----------------------------------------------------------||
B|--------------------------------0-1-3-0-1----0---------||
G|--0-0-0-0-0-----0-0-0-0-0---------------2---0-2----||
D|--0-0-0-2-0-----0-0-0-2-0----------------------------||
A|--2-2-2-3-2-----2-2-2-3-2----------------------------||
E|--3---------3-----3--------3----------------------------||


E|-----------------------------------------------0---3---2---3---||
B|-----------0---0--------------0--------------1---3---3---3---||
G|----0-0-2---0---2----0-0-2---0-0----------0---0---2---0---||
D|--0-----------------0---------------4-3-2---2---0---0---0---||
A|----------------------------------------------3---2---0---2---||
E|----------------------------------------------3------------3---||

Le battement à la fin, je fais :
Bas court(une note) et dans l foulée Bas long
Haut Bas Bas
bas
pour chaque accord et on fait 2 tours …
et à la fin do sol … moi, je les ai oublié ces deux là sur ma vidéo !


et voici la back track pour vous entraîner :




amusez vous bien !
Back to top
Publicité






PostPosted: Sun 19 Jul 2009 - 22:48    Post subject: Publicité

PublicitéSupprimer les publicités ?
Back to top
Siriusfly
Référent guitare

Offline

Joined: 30 Jul 2007
Posts: 2,020
Localisation: Belgique
Masculin
Niveau de guitare: depuis demain
Point(s): 0
Moyenne de points: 0

PostPosted: Mon 20 Jul 2009 - 18:39    Post subject: dueling banjo délivrance en version lente Reply with quote

un tres chouette morceau ! 
dommage que t'as encore du mal a la jouer lentement j'aurais bien aimé l'entendre avec la vitesse normale  Razz

c'est bien, continue comme ça  Okay j'attend la suite avec impatience  Wink
_________________
Work hard dream big
Back to top
pefmo
Guest

Offline




PostPosted: Tue 21 Jul 2009 - 22:13    Post subject: dueling banjo délivrance en version lente Reply with quote

c'est pour ça que j'ai mis un lien sur le duel extrait de film !

pour patienter en attendant que j'accélère ! Mr. Green
Back to top
Siriusfly
Référent guitare

Offline

Joined: 30 Jul 2007
Posts: 2,020
Localisation: Belgique
Masculin
Niveau de guitare: depuis demain
Point(s): 0
Moyenne de points: 0

PostPosted: Wed 22 Jul 2009 - 16:09    Post subject: dueling banjo délivrance en version lente Reply with quote

boooh ça viendra et puis tu ferras ça les doigts dans le nez  Mr. Green

moi aussi je me serrais acheter un banjo rien que pour cette chanson  Mr. Green c'est ton cas ? 
_________________
Work hard dream big
Back to top
pefmo
Guest

Offline




PostPosted: Wed 22 Jul 2009 - 22:36    Post subject: dueling banjo délivrance en version lente Reply with quote

Hé hé !!! un peu !
mais pas complètement,
c'est Jean Marie REDON ( un français !) qui m'a donné l'envie de m'y mettre ...
j'aime la country en général, et le son "fin et délicat" du banjo !!! Mr. Green

un petit lien pour connaître Jean Marie REDON
http://redon-lombardi.fr/?page_id=25
Back to top
Azmodan
Modérateur

Offline

Joined: 22 Sep 2008
Posts: 1,739
Localisation: Rennes
Masculin Lion (24juil-23aoû)
Niveau de guitare: Intermédiaire
Point(s): 0
Moyenne de points: 0

PostPosted: Thu 30 Jul 2009 - 19:54    Post subject: dueling banjo délivrance en version lente Reply with quote

Je trouve ça bien fun en tout cas. Un jour peu être des battle en live sur 6 cordes ?  Mr. Green
_________________
"Si tu es le meilleur musicien de ton groupe, alors change de groupe. Pat Metheny"
Back to top
Visit poster’s website
Contenu Sponsorisé






PostPosted: Today at 20:53    Post subject: dueling banjo délivrance en version lente

Back to top
Display posts from previous:   
Post new topic   Reply to topic    six.cordes : les cours de guitare Forum Index -> A vous de jouer -> Vos œuvres -> Vos interprétations All times are GMT + 1 Hour
Page 1 of 1

 
Jump to:  

Index | Forum hosting | Free support forum | Free forums directory | Report a violation | Conditions générales d'utilisation
Powered by phpBB © 2001, 2005 phpBB Group
Logo by mide.be