six.cordes : les cours de guitare Forum Index

Forum de discussions sur l'apprentissage et les cours de guitare en général.
 
six.cordes : les cours de guitare Forum IndexFAQSearchMemberlistUsergroupsProfileRegisterLog in

PICKING 3 : allez je commence heuuuu… allez, lundi matin !

 
Post new topic   Reply to topic    six.cordes : les cours de guitare Forum Index -> Apprendre et comprendre la guitare -> Comment apprendre la guitare ? - FAQ -> Les cours de guitare du forum
Previous topic :: Next topic  
Author Message
pefmo
Guest

Offline




PostPosted: Sun 19 Jul 2009 - 22:18    Post subject: PICKING 3 : allez je commence heuuuu… allez, lundi matin ! Reply with quote

Lundi matin ???

Lundi matin l’Empereur, sa femme et le p’tit prince …. !

Vous la connaissez ?
Alors voici une version très simple en picking !

Des accords très simplifiés, do, mi, ré
avec pleins de cordes à vide pour la main gauche …

pour la main droite (pour jeu en droitier …),
le pouce fait les 3 basses mi la ré,
l’index s’occupe du sol et le majeur du si,
sauf qu’à deux endroits on monte d’une corde,
c’est la seule difficulté,
l’index s’occupe alors du ré et le majeur du sol,
l’annulaire reste sur la mi aigue.

la vidéo :



la tablature:

Je vous refais le coup de la partition verticale plus facile à écrire et à commenter !

Les cordes>> les doigts en cause main droite
EADGBe
|3|-|-|0|0|3|>>pouce IMA
|-|0|-|-|1|2|>>pouce MA
|-|-|-|-|-|0|>>A
|-|2|-|-|3|-|>>pouce M
|3|-|-|--|-|>>pouce
|-|-|-|-|-|0|>>A
|-|3|-|-|3|-|>>pouce M
|-|-|-|-|-|0|>>A
|-|-|0|2|3|-|>>pouce IM on peut aussi jouer |-|-|0|-|3|-|>> pouce M
|-|-|-|-|1|-|>>M
|-|-|-|-|0|-|>>pulling off
|-|-|-|2|-|-|>>I
|3|-|-|-|0|-|>>pouce M
|-|-|-|0|-|-|>>I
on recommence avec quelques changements !
EADGBe
|3|-|-|0|0|3|>>pouce IMA
|-|-|-|-|-|3|>>A
|-|0|-|-|1|2|>>pouce MA
|-|-|-|-|-|0|>>A
|-|2|-|-|3|-|>>pouce M
|3|-|-|--|-|>>pouce
|-|-|-|-|-|0|>>A
|-|3|-|-|3|-|>>pouce M
|-|-|-|-|-|0|>>A
|-|-|0|-|3|-|>>pouce M
|-|-|-|-|1|-|>>M
|-|-|-|-|0|-|>>pulling off
|-|-|-|2|-|-|>>I
|3|-|-|-|0|-|>>pouce M
|-|-|-|0|-|-|>>I

et le refrain !
EADGBe
|0|-|2|0|-|-|>>pouce IM (l’index et le majeur monte d’une corde)
|-|-|-|-|0|-|>>M
|-|-|-|0|-|-|>>I
|-|-|-|-|0|-|>>M
|2|-|-|2|3|-|>>pouce IM
on recommence
|0|-|2|0|-|-|>>pouce IM (l’index et le majeur monte d’une corde)
|-|-|-|-|0|-|>>M
|-|-|-|0|-|-|>>I
|-|-|-|-|0|-|>>M
|2|-|-|2|3|-|>>pouce IM
et on termine
|3|-|-|0|0|3|>>pouce IMA
|-|-|-|-|-|3|>>A
|-|0|-|-|1|2|>>pouce MA
|-|-|-|-|-|0|>>A
|-|2|-|-|3|-|>>pouce M
|-|-|-|-|-|0|>>A
|-|3|-|-|3|-|>>pouce M
|-|-|-|-|1|-|>>M
|-|-|0|-|0|-|>>pouce M
|-|-|-|2|-|-|>>I
|3|-|0|0|-|-|>>pouce IM (l’index et le majeur monte d’une corde)
et on repart au début pour mardi !
ou on glisse en 15 comme moi …

amusez vous bien !


Last edited by pefmo on Sat 10 Oct 2009 - 21:44; edited 1 time in total
Back to top
Publicité






PostPosted: Sun 19 Jul 2009 - 22:18    Post subject: Publicité

PublicitéSupprimer les publicités ?
Back to top
pierrounet
6 cordes
6 cordes

Offline

Joined: 01 Mar 2008
Posts: 1,662
Localisation: pays des crêpes
Masculin Verseau (20jan-19fev)
Niveau de guitare: pfff
Point(s): 0
Moyenne de points: 0

PostPosted: Mon 20 Jul 2009 - 12:24    Post subject: PICKING 3 : allez je commence heuuuu… allez, lundi matin ! Reply with quote

Merci pour tes contributions Pef Okay
Back to top
Gribouille31
Administrateur

Offline

Joined: 24 Oct 2008
Posts: 2,953
Localisation: Toulouse
Féminin
Niveau de guitare: depuis juin 2008
Point(s): 0
Moyenne de points: 0

PostPosted: Mon 20 Jul 2009 - 13:45    Post subject: PICKING 3 : allez je commence heuuuu… allez, lundi matin ! Reply with quote

oh ! j'en connais une qui va trouver sa môman méga géniale grâce à toi
!

et j'en profite moi aussi pour te remercier pour tous tes tutos Okay

Edit : je me suis réécris tout ça en position horizontale Mr. Green , ya plus les doigts mais mon cerveau préfère Wink , donc voilà s'il y a d'autres amateurs (en espérant que je ne me sois pas plantée Embarassed )

Code:
--3----2----0 --------------0---------0-----------------------------------
--0----1----------3--------------3-----------3----1-p-0----------0--------
--0------------------------------------------2--------------2----------0--
---------------------------------------------0----------------------------
-------0----------2--------------3----------------------------------------
--3--------------------3-----------------------------------------3--------
 

on recommence avec quelques changements !


--3----3----2----0---------------0----------0-----------------------------------
--0---------1----------3--------------3-----------3----1-p-0----------0---------
--0---------------------------------------------------------------2----------0--
--------------------------------------------------0-----------------------------
------------0----------2--------------3-----------------------------------------
--3--------------------------3----------------------------------------3---------
 

et le refrain !


----------------------------------------------------
-------0----------0----3---------0----------0----3--
--0---------0----------2----0---------0----------2--
--2-------------------------2-----------------------
----------------------------------------------------
--0--------------------2----0--------------------2--
 
et on termine


--3----3----2----0----------0------------------------------
--0---------1----------3---------3----1----0---------------
--0------------------------------------------------2----0--
-------------------------------------------0------------0--
------------0----------2---------3-------------------------
--3-----------------------------------------------------3--
 

et on repart au début pour mardi !
ou on glisse en 15 comme moi...


_________________
Petit à petit on devient moins petit...
Exclamation Sommaire des cours du forum Exclamation
Back to top
Visit poster’s website
pefmo
Guest

Offline




PostPosted: Tue 21 Jul 2009 - 22:10    Post subject: PICKING 3 : allez je commence heuuuu… allez, lundi matin ! Reply with quote

Bravo Gribouille, du beau boulot !

c'est vrai que c'est plus lisible, les habitudes ont la peau dure !
Back to top
Gribouille31
Administrateur

Offline

Joined: 24 Oct 2008
Posts: 2,953
Localisation: Toulouse
Féminin
Niveau de guitare: depuis juin 2008
Point(s): 0
Moyenne de points: 0

PostPosted: Wed 18 Nov 2009 - 15:16    Post subject: PICKING 3 : allez je commence heuuuu… allez, lundi matin ! Reply with quote

je complète avec la mélodie toute simple, c'est moins joli mais c'est plus facile  Very Happy !


_________________
Petit à petit on devient moins petit...
Exclamation Sommaire des cours du forum Exclamation


Last edited by Gribouille31 on Thu 19 Nov 2009 - 20:45; edited 1 time in total
Back to top
Visit poster’s website
pefmo
Guest

Offline




PostPosted: Wed 18 Nov 2009 - 22:08    Post subject: PICKING 3 : allez je commence heuuuu… allez, lundi matin ! Reply with quote

et comme ça on peut le jouer à 2 !!!

super, merci !
Back to top
Contenu Sponsorisé






PostPosted: Today at 08:29    Post subject: PICKING 3 : allez je commence heuuuu… allez, lundi matin !

Back to top
Display posts from previous:   
Post new topic   Reply to topic    six.cordes : les cours de guitare Forum Index -> Apprendre et comprendre la guitare -> Comment apprendre la guitare ? - FAQ -> Les cours de guitare du forum All times are GMT + 1 Hour
Page 1 of 1

 
Jump to:  

Index | Forum hosting | Free support forum | Free forums directory | Report a violation | Conditions générales d'utilisation
Powered by phpBB © 2001, 2005 phpBB Group
Logo by mide.be