six.cordes : les cours de guitare Index du Forum

Forum de discussions sur l'apprentissage et les cours de guitare en général.
 
six.cordes : les cours de guitare Index du ForumFAQRechercherMembresGroupesProfilS’enregistrerConnexion

Travailler ses gammes avec un accompagnement

 
Poster un nouveau sujet   Répondre au sujet    six.cordes : les cours de guitare Index du Forum -> Apprendre et comprendre la guitare -> Comment apprendre la guitare ? - FAQ -> Les cours de guitare du forum
Sujet précédent :: Sujet suivant  
Auteur Message
Narduccio
Modérateur

Hors ligne

Inscrit le: 09 Jan 2008
Messages: 4 415
Localisation: Alsace
Masculin Bélier (21mar-19avr) 鼠 Rat
Niveau de guitare: En progrès
Point(s): 0
Moyenne de points: 0

MessagePosté le: Ven 12 Juin 2009 - 13:38    Sujet du message: Travailler ses gammes avec un accompagnement Répondre en citant

Voilà, vous avez travaillé votre dextérité manuelle et votre rapidité sur les exos de Sarki http://cours-de-guitare.cforum.info/t278-Les-exercices-digitaux-de-Sarki.ht… et vous regardez admiratifs vos doigts courir le long du manche telle une araignée parcourant sa toile. Mais, il est possible de se faire encore mal aux articulations. Ben oui, si on veut progresser …

Comment faire ? Prenons une gamme, telle la gamme de La :
Code:



Gamme de La
E||----------------------|-------2----4----5----|--5----4----2---------|----------------------||
B||------------2----3----|--5-------------------|-----------------5----|--3----2--------------||
G||--2----4--------------|----------------------|----------------------|------------4----2----||
D||----------------------|----------------------|----------------------|----------------------||
A||----------------------|----------------------|----------------------|----------------------||
E||----------------------|----------------------|----------------------|----------------------||





Nous allons accompagner l'exécution de cette gamme par un accord de La tout simple soit :

X02220, ce qui donne :

Code:



Piste 1
E||----------------------|----------------------|----------------------|----------------------|
B||----------------------|----------------------|--2-------------------|--3-------------------|
G||--2-------------------|--4-------------------|----------------------|----------------------|
D||-------2---------2----|-------2---------2----|-------2---------2----|-------2---------2----|
A||--0---------0---------|--0---------0---------|--0---------0---------|--0---------0---------|
E||----------------------|----------------------|----------------------|----------------------|

----------------------|--2-------------------|--4-------------------|--5-------------------|
--5-------------------|----------------------|----------------------|----------------------|
----------------------|----------------------|----------------------|----------------------|
-------2---------2----|-------2---------2----|-------2---------2----|-------2---------2----|
--0---------0---------|--0---------0---------|--0---------0---------|--0---------0---------|
----------------------|----------------------|----------------------|----------------------|

--5-------------------|--4-------------------|--2-------------------|----------------------|
----------------------|----------------------|----------------------|--5-------------------|
----------------------|----------------------|----------------------|----------------------|
-------2---------2----|-------2---------2----|-------2---------2----|-------2---------2----|
--0---------0---------|--0---------0---------|--0---------0---------|--0---------0---------|
----------------------|----------------------|----------------------|----------------------|

----------------------|----------------------|----------------------|----------------------||
--3-------------------|--2-------------------|----------------------|----------------------||
----------------------|----------------------|--4-------------------|--2-------------------||
-------2---------2----|-------2---------2----|-------2---------2----|-------2---------2----||
--0---------0---------|--0---------0---------|--0---------0---------|--0---------0---------||
----------------------|----------------------|----------------------|----------------------||





Exercice a répéter avec un métronome en allant de plus en plus vite. Attention, au début on a du mal à écarter trop les doigts, Il faut du temps pour devenir l'égal de Clapton ou de Satriani.
_________________
"Nous sommes des nains juchés sur des épaules de géant."
Bernard de Chartres
Revenir en haut
Publicité






MessagePosté le: Ven 12 Juin 2009 - 13:38    Sujet du message: Publicité

PublicitéSupprimer les publicités ?
Revenir en haut
Narduccio
Modérateur

Hors ligne

Inscrit le: 09 Jan 2008
Messages: 4 415
Localisation: Alsace
Masculin Bélier (21mar-19avr) 鼠 Rat
Niveau de guitare: En progrès
Point(s): 0
Moyenne de points: 0

MessagePosté le: Ven 12 Juin 2009 - 13:38    Sujet du message: Travailler ses gammes avec un accompagnement Répondre en citant

Ensuite, on va accélérer un petit peu ….

Code:
Piste 1 
E||----------------------|----------------------|------------2---------|--4---------5---------|
B||----------------------|--2---------3---------|--5-------------------|----------------------|
G||--2---------4---------|----------------------|----------------------|----------------------|
D||-------2---------2----|-------2---------2----|-------2---------2----|-------2---------2----|
A||--0---------0---------|--0---------0---------|--0---------0---------|--0---------0---------|
E||----------------------|----------------------|----------------------|----------------------|

 
--5---------4---------|--2-------------------|----------------------|----------------------||
----------------------|------------5---------|--3---------2---------|----------------------||
----------------------|----------------------|----------------------|--4---------2---------||
-------2---------2----|-------2---------2----|-------2---------2----|-------2---------2----||
--0---------0---------|--0---------0---------|--0---------0---------|--0---------0---------||
----------------------|----------------------|----------------------|----------------------||


Encore un petit coup d'accélérateur :

Code:

Piste 1
E||----------------------|-------2----4----5----|--5----4----2---------|----------------------||
B||------------2----3----|--5-------------------|-----------------5----|--3----2--------------||
G||--2----4--------------|----------------------|----------------------|------------4----2----||
D||-------2---------2----|-------2---------2----|-------2---------2----|-------2---------2----||
A||--0---------0---------|--0---------0---------|--0---------0---------|--0---------0---------||
E||----------------------|----------------------|----------------------|----------------------||



Et avec des croches :

Code:

Piste 1
E||--------------------------|--------------------------|-----------------2-----2--|
B||--------------------------|-----2-----2-----3-----3--|-----5-----5--------------|
G||-----2-----2-----4-----4--|--------------------------|--------------------------|
D||--2-----2-----2-----2-----|--2-----2-----2-----2-----|--2-----2-----2-----2-----|
A||--0-----0-----0-----0-----|--0-----0-----0-----0-----|--0-----0-----0-----0-----|
E||--------------------------|--------------------------|--------------------------|
 
-----4-----4-----5-----5--|-----5-----5-----4-----4--|-----2-----2--------------|
--------------------------|--------------------------|-----------------5-----5--|
--------------------------|--------------------------|--------------------------|
--2-----2-----2-----2-----|--2-----2-----2-----2-----|--2-----2-----2-----2-----|
--0-----0-----0-----0-----|--0-----0-----0-----0-----|--0-----0-----0-----0-----|
--------------------------|--------------------------|--------------------------|
 
--------------------------|--------------------------||
-----3-----3-----2-----2--|--------------------------||
--------------------------|-----4-----4-----2-----2--||
--2-----2-----2-----2-----|--2-----2-----2-----2-----||
--0-----0-----0-----0-----|--0-----0-----0-----0-----||
--------------------------|--------------------------||


A faire avec toutes les gammes que vous utilisez.
_________________
"Nous sommes des nains juchés sur des épaules de géant."
Bernard de Chartres
Revenir en haut
Narduccio
Modérateur

Hors ligne

Inscrit le: 09 Jan 2008
Messages: 4 415
Localisation: Alsace
Masculin Bélier (21mar-19avr) 鼠 Rat
Niveau de guitare: En progrès
Point(s): 0
Moyenne de points: 0

MessagePosté le: Ven 12 Juin 2009 - 13:39    Sujet du message: Travailler ses gammes avec un accompagnement Répondre en citant

Au fait, pour ceux qui se posent la question de l'utilité d'un tel exercice, regardez les guitaristes de blues, de rock ou de métal, ils utilisent souvent des petites phrases telle celle-ci :

Code:

Piste 1
     |--3-|  |--3-|  |--3-|  |--3-|     --- 
     Q    E  Q    E  Q    E  Q    E         
E||----------------------------------|-----||
B||----------------------------------|-----||
G||----------------------------------|-----||
D||----------------------------------|-----||
A||--4----4--6----6--4----4--6----6--|-----||
E||--2----2--2----2--2----2--2----2--|-----||


Là, pouvoir bouger divers doigts tout en maintenant un doigt pivot qui tient l'accord fixe, vous sera très utile.
_________________
"Nous sommes des nains juchés sur des épaules de géant."
Bernard de Chartres
Revenir en haut
Narduccio
Modérateur

Hors ligne

Inscrit le: 09 Jan 2008
Messages: 4 415
Localisation: Alsace
Masculin Bélier (21mar-19avr) 鼠 Rat
Niveau de guitare: En progrès
Point(s): 0
Moyenne de points: 0

MessagePosté le: Ven 12 Juin 2009 - 13:39    Sujet du message: Travailler ses gammes avec un accompagnement Répondre en citant

On essaye avec une autre gamme ? Par exemple, la gamme de Ré :

Code:
Piste 1
E||----------------------|--0----2----3----2----|--0-------------------|--------------------||
B||------------0----3----|----------------------|-------3----0---------|--------------------||
G||--0----2--------------|----------------------|-----------------2----|--0----2------------||
D||----------------------|----------------------|----------------------|--------------------||
A||----------------------|----------------------|----------------------|--------------------||
E||----------------------|----------------------|----------------------|--------------------||


L'accord de Ré se joue justement sur les cordes qui vont nous servir pour les notes de la gamme … Gênant, n'est-ce pas ? Pas vraiment, il faut chercher une basse qui est dans l'accord, par exemple, un Fa# :
2X0232

Et on obtient :
Code:

Piste 1
E||----------------------|----------------------|--0---------2---------|--3---------3---------|
B||----------------------|--0---------3---------|----------------------|----------------------|
G||--0---------2---------|----------------------|----------------------|----------------------|
D||-------0---------0----|-------0---------0----|-------0---------0----|-------0---------0----|
A||----------------------|----------------------|----------------------|----------------------|
E||--2---------2---------|--2---------2---------|--2---------2---------|--2---------2---------|
 
--2---------0---------|----------------------|----------------------||
----------------------|--3---------0---------|----------------------||
----------------------|----------------------|--2---------0---------||
-------0---------0----|-------0---------0----|-------0---------0----||
----------------------|----------------------|----------------------||
--2---------2---------|--2---------2---------|--2---------2---------||

_________________
"Nous sommes des nains juchés sur des épaules de géant."
Bernard de Chartres
Revenir en haut
Contenu Sponsorisé






MessagePosté le: Aujourd’hui à 21:17    Sujet du message: Travailler ses gammes avec un accompagnement

Revenir en haut
Montrer les messages depuis:   
Poster un nouveau sujet   Répondre au sujet    six.cordes : les cours de guitare Index du Forum -> Apprendre et comprendre la guitare -> Comment apprendre la guitare ? - FAQ -> Les cours de guitare du forum Toutes les heures sont au format GMT + 1 Heure
Page 1 sur 1

 
Sauter vers:  

Portail | Index | créer un forum | Forum gratuit d’entraide | Annuaire des forums gratuits | Signaler une violation | Conditions générales d'utilisation
Powered by phpBB © 2001, 2005 phpBB Group
Logo by mide.be