six.cordes : les cours de guitare Index du Forum

Forum de discussions sur l'apprentissage et les cours de guitare en général.
 
six.cordes : les cours de guitare Index du ForumFAQRechercherMembresGroupesProfilS’enregistrerConnexion

Arpèges
Aller à la page: <  1, 2, 3, 4, 5  >
 
Poster un nouveau sujet   Répondre au sujet    six.cordes : les cours de guitare Index du Forum -> Apprendre et comprendre la guitare -> Comment apprendre la guitare ? - FAQ -> Les cours de guitare du forum
Sujet précédent :: Sujet suivant  
Auteur Message
Narduccio
Modérateur

Hors ligne

Inscrit le: 09 Jan 2008
Messages: 4 415
Localisation: Alsace
Masculin Bélier (21mar-19avr) 鼠 Rat
Niveau de guitare: En progrès
Point(s): 0
Moyenne de points: 0

MessagePosté le: Dim 8 Mar 2009 - 16:15    Sujet du message: Arpèges Répondre en citant

Le suivant utilise aussi une noire pour introduire la basse, On le nomme le "clawhammer" chez les musiciens picking. p p i p m p i . Tablature :

Code:

     E                         A                         D                         E                         
     Q    E  E  E  E  E  E     Q    E  E  E  E  E  E     Q    E  E  E  E  E  E     Q    E  E  E  E  E  E 
E||-------------------------|-------------------------|-------------------------|--------------------------||
B||----------------0--------|----------------2--------|----------------3--------|----------------0---------||
G||----------1-----------1--|----------2-----------2--|----------2-----------2--|----------1-----------1---||
D||-------------2-----------|-------2-----------2-----|--0----------0-----------|-------------2------------||
A||-------2-----------------|--0----------0-----------|-------0-----------0-----|-------2------------------||
E||--0----------------0-----|-------------------------|-------------------------|--0----------------0------||


_________________
"Nous sommes des nains juchés sur des épaules de géant."
Bernard de Chartres
Revenir en haut
Publicité






MessagePosté le: Dim 8 Mar 2009 - 16:15    Sujet du message: Publicité

PublicitéSupprimer les publicités ?
Revenir en haut
Narduccio
Modérateur

Hors ligne

Inscrit le: 09 Jan 2008
Messages: 4 415
Localisation: Alsace
Masculin Bélier (21mar-19avr) 鼠 Rat
Niveau de guitare: En progrès
Point(s): 0
Moyenne de points: 0

MessagePosté le: Dim 8 Mar 2009 - 16:16    Sujet du message: Arpèges Répondre en citant

On peut utiliser la technique du pinch avec le clawhammer. En fonction de l'effet que l'on désire, on utilisera le doigt que l'on veut i(ndex) m(ajeur) ou a(nnulaire). Voici la tab avec un pinch en m :

Code:

     E                         A                         D                         E                         
     Q    E  E  E  E  E  E     Q    E  E  E  E  E  E     Q    E  E  E  E  E  E     Q    E  E  E  E  E  E 
E||-------------------------|-------------------------|-------------------------|--------------------------||
B||--0-------------0--------|--2-------------2--------|--3-------------3--------|--0-------------0---------||
G||----------1-----------1--|----------2-----------2--|----------2-----------2--|----------1-----------1---||
D||-------------2-----------|-------2-----------2-----|--0----------0-----------|-------------2------------||
A||-------2-----------------|--0----------0-----------|-------0-----------0-----|-------2------------------||
E||--0----------------0-----|-------------------------|-------------------------|--0----------------0------||



Un clawhamer un peu différent. pm p i p a p i

Code:

     E                         A                         D                         E                         
     Q    E  E  E  E  E  E     Q    E  E  E  E  E  E     Q    E  E  E  E  E  E     Q    E  E  E  E  E  E 
E||----------------0--------|----------------0--------|----------------2--------|----------------0---------||
B||--0----------------------|--2----------------------|--3----------------------|--0-----------------------||
G||----------1-----------1--|----------2-----------2--|----------2-----------2--|----------1-----------1---||
D||-------------2-----------|-------2-----------2-----|--0----------0-----------|-------------2------------||
A||-------2-----------------|--0----------0-----------|-------0-----------0-----|-------2------------------||
E||--0----------------0-----|-------------------------|-------------------------|--0----------------0------||


_________________
"Nous sommes des nains juchés sur des épaules de géant."
Bernard de Chartres
Revenir en haut
Narduccio
Modérateur

Hors ligne

Inscrit le: 09 Jan 2008
Messages: 4 415
Localisation: Alsace
Masculin Bélier (21mar-19avr) 鼠 Rat
Niveau de guitare: En progrès
Point(s): 0
Moyenne de points: 0

MessagePosté le: Dim 8 Mar 2009 - 16:16    Sujet du message: Arpèges Répondre en citant

Et un clawhammer en 3/4, ça donnerait quoi ? Ceci par exemple : pm p i p a

Code:

     E                   A                   D                   E                   
     Q    E  E  E  E     Q    E  E  E  E     Q    E  E  E  E     Q    E  E  E  E   
E||----------------0--|----------------0--|----------------2--|----------------0---||
B||--0----------------|--2----------------|--3----------------|--0-----------------||
G||----------1--------|----------2--------|----------2--------|----------1---------||
D||-------------2-----|-------2-----------|--0----------0-----|-------------2------||
A||-------2-----------|--0----------0-----|-------0-----------|-------2------------||
E||--0----------------|-------------------|-------------------|--0-----------------||


_________________
"Nous sommes des nains juchés sur des épaules de géant."
Bernard de Chartres
Revenir en haut
Narduccio
Modérateur

Hors ligne

Inscrit le: 09 Jan 2008
Messages: 4 415
Localisation: Alsace
Masculin Bélier (21mar-19avr) 鼠 Rat
Niveau de guitare: En progrès
Point(s): 0
Moyenne de points: 0

MessagePosté le: Dim 8 Mar 2009 - 16:19    Sujet du message: Arpèges Répondre en citant

Voici un arpège avec basses alternées qui sonne vraiment picking, p pi p m p ap p i p m p, On utilise des doubles croches, elles sont représentées sur la tab par la lettre S.

Code:

     E                             A                             D                             E                             
     E  E  S S E  E  S S S S E     E  E  S S E  E  S S S S E     E  E  S S E  E  S S S S E     E  E  S S E  E  S S S S E   
E||---------------0-------------|---------------0-------------|---------------2-------------|---------------0--------------||
B||----------0-------------0----|----------2-------------2----|----------3-------------3----|----------0-------------0-----||
G||-----1--------------1--------|-----2--------------2--------|-----2--------------2--------|-----1--------------1---------||
D||--------2---------2-------2--|-----2------2-----2-------2--|--0-----0------0------0------|--------2---------2-------2---||
A||-----2------2---------2------|--0-----0------0------0------|-----0------0-----0-------0--|-----2------2---------2-------||
E||--0------------0-------------|-----------------------------|-----------------------------|--0------------0--------------||



Et une autre variante : p mp p i p pa pm p i p :

Code:

     E                            A                            D                            E                           
     E  E  S S E  E  E  S S E     E  E  S S E  E  E  S S E     E  E  S S E  E  E  S S E     E  E  S S E  E  E  S S E   
E||---------------0------------|---------------0------------|---------------2------------|---------------0-------------||
B||-----0------------0---------|-----2------------2---------|-----3------------3---------|-----0------------0----------||
G||----------1------------1----|----------2------------2----|----------2------------2----|----------1------------1-----||
D||--------2------------2------|-----2------2-----2------2--|--0-----0------0-----0------|--------2------------2-------||
A||-----2------2-----2---------|--0-----0------0-----0------|-----0------0-----0------0--|-----2------2-----2----------||
E||--0------------0---------0--|----------------------------|----------------------------|--0------------0---------0---||



Et une dernière variante : p pm p i p pa p i p m p :

Code:

     E                             A                             D                             E                             
     E  E  S S E  E  S S S S E     E  E  S S E  E  S S S S E     E  E  S S E  E  S S S S E     E  E  S S E  E  S S S S E   
E||---------------0-------------|---------------0-------------|---------------2-------------|---------------0--------------||
B||-----0------------------0----|-----2------------------2----|-----3------------------3----|-----0------------------0-----||
G||----------1---------1--------|----------2---------2--------|----------2---------2--------|----------1---------1---------||
D||--------2-------------2------|-----2------2-----2-------2--|--0-----0------0------0------|--------2-------------2-------||
A||-----2------2-----2-------2--|--0-----0------0------0------|-----0------0-----0-------0--|-----2------2-----2-------2---||
E||--0------------0-------------|-----------------------------|-----------------------------|--0------------0--------------||


_________________
"Nous sommes des nains juchés sur des épaules de géant."
Bernard de Chartres
Revenir en haut
Narduccio
Modérateur

Hors ligne

Inscrit le: 09 Jan 2008
Messages: 4 415
Localisation: Alsace
Masculin Bélier (21mar-19avr) 鼠 Rat
Niveau de guitare: En progrès
Point(s): 0
Moyenne de points: 0

MessagePosté le: Dim 8 Mar 2009 - 16:20    Sujet du message: Arpèges Répondre en citant

Au fait, comment jouer à 2 guitares ? Il suffit de prendre 2 arpèges différents, mais qui se jouent sur les mêmes accords et sur le même tempo. Par exemple, pour 2 débutants, un joue en p i m i et l'autre en p a m a . Simple ? Ben si les 2 guitares sont bien accordées et que les 2 respectent le même tempo, il paraît que ça coule de source ...
_________________
"Nous sommes des nains juchés sur des épaules de géant."
Bernard de Chartres
Revenir en haut
Narduccio
Modérateur

Hors ligne

Inscrit le: 09 Jan 2008
Messages: 4 415
Localisation: Alsace
Masculin Bélier (21mar-19avr) 鼠 Rat
Niveau de guitare: En progrès
Point(s): 0
Moyenne de points: 0

MessagePosté le: Dim 8 Mar 2009 - 16:20    Sujet du message: Arpèges Répondre en citant

Quelques derniers détails. Pour montrer la spécificité des divers thèmes, j'ai choisi de n'utiliser qu'un seul enchainement d'accords. Or, certains enchainements d'accords seront mieux être mis en valeurs avec certains thèmes qu'avec d'autres. De plus, certaines progressions sont typiques de certains styles musicaux.

De plus, les accords et donc les notes jouées interviennent aussi dans le ressenti de la musique, Les 2 thèmes suivants utilisent le même arpège p i m i p a m a et la même descente d'accords : Lam Sol Fa Mi et pourtant, ce n'est pas tout à fait la même chose (je préfère le second),

Code:

     Am                         G                          F                          E                         
E||-----------------0-----0--|-----------------3-----3--|-----------------1-----1--|-----------------0-----0---||
B||--------1-----------1-----|--------0-----------0-----|--------1-----------1-----|--------0-----------0------||
G||-----2-----2--------------|-----0-----0--------------|-----2-----2--------------|-----1-----1---------------||
D||--------------2-----------|--------------------------|--------------------------|---------------------------||
A||--0-----------------------|--------------2-----------|--------------3-----------|--------------2------------||
E||--------------------------|--3-----------------------|--1-----------------------|--0------------------------||



Code:

   Am                         G                          F                          E                         
E||------------------5-----5--|-----------------3-----3--|-----------------1-----1--|-----------------0-----0---||
B||---------5-----------5-----|--------3-----------3-----|--------1-----------1-----|--------0-----------0------||
G||------5-----5--------------|-----4-----4--------------|-----2-----2--------------|-----1-----1---------------||
D||---------------------------|--------------------------|--------------------------|---------------------------||
A||---------------7-----------|--------------5-----------|--------------3-----------|--------------2------------||
E||---5-----------------------|--3-----------------------|--1-----------------------|--0------------------------||


_________________
"Nous sommes des nains juchés sur des épaules de géant."
Bernard de Chartres
Revenir en haut
Narduccio
Modérateur

Hors ligne

Inscrit le: 09 Jan 2008
Messages: 4 415
Localisation: Alsace
Masculin Bélier (21mar-19avr) 鼠 Rat
Niveau de guitare: En progrès
Point(s): 0
Moyenne de points: 0

MessagePosté le: Dim 8 Mar 2009 - 16:21    Sujet du message: Arpèges Répondre en citant

Ensuite, quand j'ai utilisé le pinch, je me suis toujours servi du même doigts sur tout le thème. Or, en fonction des accords utilisés, ce n'est pas la même note de l'accord qui est joué. En fonction de l'accord, la corde pincée par le majeur peut être la fondamentale, mais aussi la tierce, ou la quinte ou une autre note dans le cas d'accords plus exotiques. Or, on peut renforcer le style du morceau en jouant une note précise de l'accord. Par exemple, c'est la tierce qui détermine si l'accord est mineur ou majeur. Si on pince systématiquement la fondamentale et la tierce lors du pinch, on va renforcer la tendance mineure ou majeure. Dans ce cas, il faudra voir quelle corde ont doit pincer pour quel accord.

Pour ce qui est des basses, surtout lorsqu'il y en a plusieurs par mesure, il faut veiller à ce que cela fasse un thème mélodique que l'on nomme la ligne de basse. Dans de nombreux styles musicaux, il s'agit de jouer en alternance la fondamentale et la quinte. Mais, dans d'autres styles on trouverait "limitée" une ligne de basse aussi simpliste. Mais, là, on n'est plus dans des notions de débutants.

Dernier point, doit-on jouer tout un morceau avec un seul thème ? Cela dépend, Certains chansons sont jouées avec 1 seul thème. D'autres alternent des thèmes différents pour les couplets et le refrains ou utilisent un thème spécial pour le pont. Jeff Buckley pour sa version d'Halleluia alterne plusieurs thèmes différents ce qui participe grandement à la richesse de cette chanson.
_________________
"Nous sommes des nains juchés sur des épaules de géant."
Bernard de Chartres
Revenir en haut
nougat626
Deux cordes
Deux cordes

Hors ligne

Inscrit le: 07 Nov 2007
Messages: 69
Localisation: Saint-Locdu-le-Vieux
Masculin Lion (24juil-23aoû) 虎 Tigre
Niveau de guitare: bof + 1
Point(s): 0
Moyenne de points: 0

MessagePosté le: Dim 8 Mar 2009 - 21:13    Sujet du message: Arpèges Répondre en citant

merci !

+ demande de ban pour boost Mr. Green

non sans rire merci Okay
Revenir en haut
Narduccio
Modérateur

Hors ligne

Inscrit le: 09 Jan 2008
Messages: 4 415
Localisation: Alsace
Masculin Bélier (21mar-19avr) 鼠 Rat
Niveau de guitare: En progrès
Point(s): 0
Moyenne de points: 0

MessagePosté le: Dim 8 Mar 2009 - 22:24    Sujet du message: Arpèges Répondre en citant

Au fait, s'il y avait un volontaire pour faire des MP3 des divers arpèges .... D'avance merci.
_________________
"Nous sommes des nains juchés sur des épaules de géant."
Bernard de Chartres
Revenir en haut
Rajah
5 cordes
5 cordes

Hors ligne

Inscrit le: 09 Jan 2009
Messages: 1 125
Localisation: Bangkok
Féminin Scorpion (23oct-21nov)
Niveau de guitare: jeune padawan
Point(s): 0
Moyenne de points: 0

MessagePosté le: Lun 9 Mar 2009 - 13:42    Sujet du message: Arpèges Répondre en citant

Shocked Quel énorme travail, Narduccio! Bravo! Et merci beaucoup d'en avoir pris le temps!   Maitre

PS : J'ai commencé quelques enregistrements, dès que j'ai le temps je m'y remets et je vous envoie ça!
_________________
Vu du week-end, le ciel est plus beau.
Revenir en haut
Visiter le site web du posteur
K-mille
5 cordes
5 cordes

Hors ligne

Inscrit le: 21 Juin 2007
Messages: 1 297
Localisation: Paris
Féminin 鼠 Rat
Niveau de guitare: débutante débrouillé
Point(s): 0
Moyenne de points: 0

MessagePosté le: Lun 9 Mar 2009 - 23:32    Sujet du message: Arpèges Répondre en citant

Okay
_________________
La différence entre "ça" et "sa"
"é" ou "er" à la fin d'un mot ?
Revenir en haut
Eiffel
6 cordes
6 cordes

Hors ligne

Inscrit le: 09 Sep 2008
Messages: 1 807
Localisation: Verchères
Masculin
Niveau de guitare: Intermédiaire
Point(s): 0
Moyenne de points: 0

MessagePosté le: Mar 10 Mar 2009 - 01:21    Sujet du message: Arpèges Répondre en citant

Hey hey Narduccio, encore très bien ton boulot Wink

Je laisse Rajah cette fois-ci pour les mp3 Laughing Wink
_________________
Lorsque le pouvoir de l'amour surpassera l'amour du pouvoir, la paix reignera dans le monde.
Revenir en haut
stmor
Trois cordes
Trois cordes

Hors ligne

Inscrit le: 03 Fév 2009
Messages: 394
Localisation: Landivisiau (à côté)
Masculin
Niveau de guitare: 6 mois
Point(s): 0
Moyenne de points: 0

MessagePosté le: Mar 10 Mar 2009 - 16:23    Sujet du message: Arpèges Répondre en citant

Très instructif pour les néophytes comme moi Smile

Merci beaucoup pour cette partie théorique qu'on integre clairement et progressivement .


Juste une question en passant, quand je dois faire un arpège en sol par exemple, pourquoi certaines cordes que je frette emette un bruit du style "dzoingg" ??
_________________
"Le djembé est à la musique ce que le couteau est à la purée" ^-^
Revenir en haut
Visiter le site web du posteur
Schneider
Référent guitare classique

Hors ligne

Inscrit le: 16 Déc 2008
Messages: 2 334
Localisation: Gare Montparnasse
Masculin
Niveau de guitare: Classique
Point(s): 0
Moyenne de points: 0

MessagePosté le: Mar 10 Mar 2009 - 17:33    Sujet du message: Arpèges Répondre en citant

Quelques questions :
- le bout de tes doigts (dernières phalanges main gauche Mr. Green ) est-il bien perpendiculaire a la corde ?
- est-il suffisamment proche de la frette ?
- appuie-t-il suffisamment fort ?
- touche-t-il une des cordes adjacentes ?
_________________
Travaillez, lentement, puis très lentement, et encore plus lentement. (Camille Saint-Saëns)
Revenir en haut
stmor
Trois cordes
Trois cordes

Hors ligne

Inscrit le: 03 Fév 2009
Messages: 394
Localisation: Landivisiau (à côté)
Masculin
Niveau de guitare: 6 mois
Point(s): 0
Moyenne de points: 0

MessagePosté le: Mar 10 Mar 2009 - 17:59    Sujet du message: Arpèges Répondre en citant

Ca ne doit pas faire tout ça à la fois ? Shocked Shocked Shocked

bon y'a encore du boulot ... Crying or Very sad

Merci, je vais déjà appliquer ça pour voir
_________________
"Le djembé est à la musique ce que le couteau est à la purée" ^-^
Revenir en haut
Visiter le site web du posteur
Contenu Sponsorisé






MessagePosté le: Aujourd’hui à 21:08    Sujet du message: Arpèges

Revenir en haut
Montrer les messages depuis:   
Poster un nouveau sujet   Répondre au sujet    six.cordes : les cours de guitare Index du Forum -> Apprendre et comprendre la guitare -> Comment apprendre la guitare ? - FAQ -> Les cours de guitare du forum Toutes les heures sont au format GMT + 1 Heure
Aller à la page: <  1, 2, 3, 4, 5  >
Page 2 sur 5

 
Sauter vers:  

Portail | Index | créer un forum | Forum gratuit d’entraide | Annuaire des forums gratuits | Signaler une violation | Conditions générales d'utilisation
Powered by phpBB © 2001, 2005 phpBB Group
Logo by mide.be