six.cordes : les cours de guitare Index du Forum

Forum de discussions sur l'apprentissage et les cours de guitare en général.
 
six.cordes : les cours de guitare Index du ForumFAQRechercherMembresGroupesProfilS’enregistrerConnexion

Arpèges
Aller à la page: 1, 2, 3, 4, 5  >
 
Poster un nouveau sujet   Répondre au sujet    six.cordes : les cours de guitare Index du Forum -> Apprendre et comprendre la guitare -> Comment apprendre la guitare ? - FAQ -> Les cours de guitare du forum
Sujet précédent :: Sujet suivant  
Auteur Message
Narduccio
Modérateur

Hors ligne

Inscrit le: 09 Jan 2008
Messages: 4 415
Localisation: Alsace
Masculin Bélier (21mar-19avr) 鼠 Rat
Niveau de guitare: En progrès
Point(s): 0
Moyenne de points: 0

MessagePosté le: Dim 8 Mar 2009 - 15:59    Sujet du message: Arpèges Répondre en citant

Explorons maintenant le monde des arpèges.

Commençons par quelques arpèges très simples Sur un rythme de 4/4, voici le p m a m. Quel nom barbare dirons certains, mais tout s'explique. P pour pouce, m pour majeur, a pour annulaire. Quand on joue des arpèges, sauf indications inverses, on utilise le pouce pour pincer les 3 cordes graves. Les 3 cordes aiguës ont chacune leur doigt dédié. L'index pince la quatrième corde, la corde de Sol. Le majeur pince la cinquième corde, la corde de Si. L'annulaire pince la sixième corde, la corde de Mi aiguë. Donc, p m a m signifie que l'on va jouer une corde avec le pouce, puis la 5ème corde, la 6ème et la 5 ème pour finir.

Mais voilà, le pouce à 3 cordes à sa disposition et vient une question toute naturelle, laquelle des 3 ? La réponse est simple : la note la plus grave de l'accord en question puisqu'il s'agit de la fondamentale. Pour les accords de 6 notes, il s'agira de la 1ère corde, la corde de MI. Pour un accord de 5 notes, il s'agira de la seconde corde, la corde de la LA. Pour les accords de 4 notes, il s'agira de la 3ème corde, la corde de RÉ.

Dans la tablature suivante, on joue en croche et on répète le thème 2 fois par mesure.

Code:



     E                          A                          D                          E                          
E||--------0-----------0-----|--------0-----------0-----|--------2-----------2-----|--------0-----------0------||
B||-----0-----0-----0-----0--|-----2-----2-----2-----2--|-----3-----3-----3-----3--|-----0-----0-----0-----0---||
G||--------------------------|--------------------------|--------------------------|---------------------------||
D||--------------------------|--------------------------|--0-----------0-----------|---------------------------||
A||--------------------------|--0-----------0-----------|--------------------------|---------------------------||
E||--0-----------0-----------|--------------------------|--------------------------|--0-----------0------------||





Voici l'interprétation de Rajah



Si on jouait avec des noires, il ne faudrait jouer le thème qu'une fois par mesure.

Code:



     E                      A                      D                         E                      
E||------------0---------|------------0---------|------------2---------|------------0----------||
B||-------0---------0----|-------2---------2----|-------3---------3----|-------0---------0-----||
G||----------------------|----------------------|----------------------|-----------------------||
D||----------------------|----------------------|--0-------------------|-----------------------||
A||----------------------|--0-------------------|----------------------|-----------------------||
E||--0-------------------|----------------------|----------------------|--0--------------------||







On peut le jouer en 12/8, mais il faudra le répéter 3 fois par mesure.


_________________
"Nous sommes des nains juchés sur des épaules de géant."
Bernard de Chartres


Dernière édition par Narduccio le Jeu 16 Avr 2009 - 15:28; édité 6 fois
Revenir en haut
Publicité






MessagePosté le: Dim 8 Mar 2009 - 15:59    Sujet du message: Publicité

PublicitéSupprimer les publicités ?
Revenir en haut
Narduccio
Modérateur

Hors ligne

Inscrit le: 09 Jan 2008
Messages: 4 415
Localisation: Alsace
Masculin Bélier (21mar-19avr) 鼠 Rat
Niveau de guitare: En progrès
Point(s): 0
Moyenne de points: 0

MessagePosté le: Dim 8 Mar 2009 - 16:00    Sujet du message: Arpèges Répondre en citant

L'arpège suivant se nomme le p i m i . Ceux qui ont suivi me diront que l'on joue pouce, index, majeur et index. Ce qui donne :

Code:

     E                          A                          D                          E                         
E||--------------------------|--------------------------|--------------------------|---------------------------||
B||--------0-----------0-----|--------2-----------2-----|--------3-----------3-----|--------0-----------0------||
G||-----1-----1-----1-----1--|-----2-----2-----2-----2--|-----2-----2-----2-----2--|-----1-----1-----1-----1---||
D||--------------------------|--------------------------|--0-----------0-----------|---------------------------||
A||--------------------------|--0-----------0-----------|--------------------------|---------------------------||
E||--0-----------0-----------|--------------------------|--------------------------|--0-----------0------------||





Et voilà le p a m a. Pouce, annulaire, majeur, annulaire.
Code:

     E                          A                          D                          E                         
E||-----0-----0-----0-----0--|-----0-----0-----0-----0--|-----2-----2-----2-----2--|-----0-----0-----0-----0---||
B||--------0-----------0-----|--------2-----------2-----|--------3-----------3-----|--------0-----------0------||
G||--------------------------|--------------------------|--------------------------|---------------------------||
D||--------------------------|--------------------------|--0-----------0-----------|---------------------------||
A||--------------------------|--0-----------0-----------|--------------------------|---------------------------||
E||--0-----------0-----------|--------------------------|--------------------------|--0-----------0------------||





Ces 2 petits arpèges qui donnent une sonorité entêtante, peuvent être mélangés, ce qui donne du p i mi p a m a . Voici la tablature :

Code:

     E                          A                          D                          E                         
E||-----------------0-----0--|-----------------0-----0--|-----------------2-----2--|-----------------0-----0---||
B||--------0-----------0-----|--------2-----------2-----|--------3-----------3-----|--------0-----------0------||
G||-----1-----1--------------|-----2-----2--------------|-----2-----2--------------|-----1-----1---------------||
D||--------------------------|--------------------------|--0-----------0-----------|---------------------------||
A||--------------------------|--0-----------0-----------|--------------------------|---------------------------||
E||--0-----------0-----------|--------------------------|--------------------------|--0-----------0------------||





N'oubliez pas de laisser sonner les basses.
_________________
"Nous sommes des nains juchés sur des épaules de géant."
Bernard de Chartres


Dernière édition par Narduccio le Lun 6 Avr 2009 - 17:22; édité 2 fois
Revenir en haut
Narduccio
Modérateur

Hors ligne

Inscrit le: 09 Jan 2008
Messages: 4 415
Localisation: Alsace
Masculin Bélier (21mar-19avr) 鼠 Rat
Niveau de guitare: En progrès
Point(s): 0
Moyenne de points: 0

MessagePosté le: Dim 8 Mar 2009 - 16:01    Sujet du message: Arpèges Répondre en citant

Le p i m a est un grand classique, les accords étant "déroulés" de manière continue. Voici la tabs :

Code:

     E                          A                          D                          E                         
E||-----------0-----------0--|-----------0-----------0--|-----------2-----------2--|-----------0-----------0---||
B||--------0-----------0-----|--------2-----------2-----|--------3-----------3-----|--------0-----------0------||
G||-----1-----------1--------|-----2-----------2--------|-----2-----------2--------|-----1-----------1---------||
D||--------------------------|--------------------------|--0-----------0-----------|---------------------------||
A||--------------------------|--0-----------0-----------|--------------------------|---------------------------||
E||--0-----------0-----------|--------------------------|--------------------------|--0-----------0------------||





Et sa variante, le p a m i .
Code:

     E                          A                          D                          E                         
E||-----0-----------0--------|-----0-----------0--------|-----2-----------2--------|-----0-----------0---------||
B||--------0-----------0-----|--------2-----------2-----|--------3-----------3-----|--------0-----------0------||
G||-----------1-----------1--|-----------2-----------2--|-----------2-----------2--|-----------1-----------1---||
D||--------------------------|--------------------------|--0-----------0-----------|---------------------------||
A||--------------------------|--0-----------0-----------|--------------------------|---------------------------||
E||--0-----------0-----------|--------------------------|--------------------------|--0-----------0------------||





On peut mixer le p a m i avec la p i m a, Dans un sens, ça donne le pimapami :

Code:

     E                          A                          D                          E                         
E||-----------0-----0--------|-----------0-----0--------|-----------2-----2--------|-----------0-----0---------||
B||--------0-----------0-----|--------2-----------2-----|--------3-----------3-----|--------0-----------0------||
G||-----1-----------------1--|-----2-----------------2--|-----2-----------------2--|-----1-----------------1---||
D||--------------------------|--------------------------|--0-----------0-----------|---------------------------||
A||--------------------------|--0-----------0-----------|--------------------------|---------------------------||
E||--0-----------0-----------|--------------------------|--------------------------|--0-----------0------------||





Dans l'autre sens, c'est le pamipima :

Code:

     E                          A                          D                          E                         
E||-----0-----------------0--|-----0-----------------0--|-----2-----------------2--|-----0-----------------0---||
B||--------0-----------0-----|--------2-----------2-----|--------3-----------3-----|--------0-----------0------||
G||-----------1-----1--------|-----------2-----2--------|-----------2-----2--------|-----------1-----1---------||
D||--------------------------|--------------------------|--0-----------0-----------|---------------------------||
A||--------------------------|--0-----------0-----------|--------------------------|---------------------------||
E||--0-----------0-----------|--------------------------|--------------------------|--0-----------0------------||




_________________
"Nous sommes des nains juchés sur des épaules de géant."
Bernard de Chartres


Dernière édition par Narduccio le Jeu 16 Avr 2009 - 15:32; édité 2 fois
Revenir en haut
Narduccio
Modérateur

Hors ligne

Inscrit le: 09 Jan 2008
Messages: 4 415
Localisation: Alsace
Masculin Bélier (21mar-19avr) 鼠 Rat
Niveau de guitare: En progrès
Point(s): 0
Moyenne de points: 0

MessagePosté le: Dim 8 Mar 2009 - 16:01    Sujet du message: Arpèges Répondre en citant

Quant à l'arpège de la plage que l'on trouve sur le cours : http://six.cordes.over-blog.com/article-10962347.html, c'est un p i m i a m i m . Ce qui donne :

Code:

     E                          A                          D                          E                         
E||--------------0-----------|--------------0-----------|--------------2-----------|--------------0------------||
B||--------0-----------0-----|--------2-----------2-----|--------3-----------3-----|--------0-----------0------||
G||-----1-----1-----1-----1--|-----2-----2-----2-----2--|-----2-----2-----2-----2--|-----1-----1-----1-----1---||
D||--------------------------|--------------------------|--0-----------------------|---------------------------||
A||--------------------------|--0-----------------------|--------------------------|---------------------------||
E||--0-----------------------|--------------------------|--------------------------|--0------------------------||




_________________
"Nous sommes des nains juchés sur des épaules de géant."
Bernard de Chartres


Dernière édition par Narduccio le Ven 13 Mar 2009 - 19:49; édité 1 fois
Revenir en haut
Narduccio
Modérateur

Hors ligne

Inscrit le: 09 Jan 2008
Messages: 4 415
Localisation: Alsace
Masculin Bélier (21mar-19avr) 鼠 Rat
Niveau de guitare: En progrès
Point(s): 0
Moyenne de points: 0

MessagePosté le: Dim 8 Mar 2009 - 16:06    Sujet du message: Arpèges Répondre en citant

Passons aux rythmes en 6/8 avec le p i m a m i . Voici la tablature avec toujours les mêmes accords de manière à bien entendre les différences qu'entraine le changement de jeux :

Code:

     E                    A                    D                    E                   
E||-----------0--------|-----------0--------|-----------2--------|-----------0---------||
B||--------0-----0-----|--------2-----2-----|--------3-----3-----|--------0-----0------||
G||-----1-----------1--|-----2-----------2--|-----2-----------2--|-----1-----------1---||
D||--------------------|--------------------|--0-----------------|---------------------||
A||--------------------|--0-----------------|--------------------|---------------------||
E||--0-----------------|--------------------|--------------------|--0------------------||





Il existe une variante, le p a m i m a :

Code:

     E                    A                    D                     E                   
E||-----0-----------0--|-----0-----------0--|-----2-----------2--|-----0-----------0---||
B||--------0-----0-----|--------2-----2-----|--------3-----3-----|--------0-----0------||
G||-----------1--------|-----------2--------|-----------2--------|-----------1---------||
D||--------------------|--------------------|--0-----------------|---------------------||
A||--------------------|--0-----------------|--------------------|---------------------||
E||--0-----------------|--------------------|--------------------|--0------------------||





On retrouve souvent ces 2 arpèges sur des rythmes en 8/8, mais dans ce cas, les notes sont jouées en triolet, ce qui veut dire que 3 croches durent 1 noire et on met donc 2 thèmes par mesure, C'est un arpège qui a été rendu célèbre par la chanson : "Les portes du Pénitencier",

Code:
     E                                      A                                      D                                      E                                     
     |--3--|  |--3--|  |--3--|  |--3--|  |--3--|  |--3--|  |--3--|  |--3--|     |--3--|  |--3--|  |--3--|  |--3--|     |--3--|  |--3--|  |--3--|  |--3--|     
     E  E  E  E  E  E  E  E  E  E  E  E     E  E  E  E  E  E  E  E  E  E  E  E     E  E  E  E  E  E  E  E  E  E  E  E     E  E  E  E  E  E  E  E  E  E  E  E   5x
E||-----------0-----------------0--------|-----------0-----------------0--------|-----------2-----------------2--------|-----------0-----------------0---------||
B||--------0-----0-----------0-----0-----|--------2-----2-----------2-----2-----|--------3-----3-----------3-----3-----|--------0-----0-----------0-----0------||
G||-----1-----------1-----1-----------1--|-----2-----------2-----2-----------2--|-----2-----------2-----2-----------2--|-----1-----------1-----1-----------1--*||
D||--------------------------------------|--------------------------------------|--0-----------------0-----------------|--------------------------------------*||
A||--------------------------------------|--0-----------------0-----------------|--------------------------------------|---------------------------------------||
E||--0-----------------0-----------------|--------------------------------------|--------------------------------------|--0-----------------0------------------||

Duration Legend
---------------
W - whole
H - half
Q - quarter
E - 8th
S - 16th
T - 32nd
X - 64th
. - note dotted
|-n-|  - n-tuplets



En mélangeant tout cela on obtient du pimamipamima :

Code:

     E                                      A                                      D                                      E                                     
     |--3--|  |--3--|  |--3--|  |--3--|     |--3--|  |--3--|  |--3--|  |--3--|     |--3--|  |--3--|  |--3--|  |--3--|     |--3--|  |--3--|  |--3--|  |--3--|     
     E  E  E  E  E  E  E  E  E  E  E  E     E  E  E  E  E  E  E  E  E  E  E  E     E  E  E  E  E  E  E  E  E  E  E  E     E  E  E  E  E  E  E  E  E  E  E  E   5x
E||-----------0-----------0-----------0--|-----------0-----------0-----------0--|-----------2-----------2-----------2--|-----------0-----------0-----------0---||
B||--------0-----0-----------0-----0-----|--------2-----2-----------2-----2-----|--------3-----3-----------3-----3-----|--------0-----0-----------0-----0------||
G||-----1-----------1-----------1--------|-----2-----------2-----------2--------|-----2-----------2-----------2--------|-----1-----------1-----------1--------*||
D||--------------------------------------|--------------------------------------|--0-----------------0-----------------|--------------------------------------*||
A||--------------------------------------|--0-----------------0-----------------|--------------------------------------|---------------------------------------||
E||--0-----------------0-----------------|--------------------------------------|--------------------------------------|--0-----------------0------------------||





_________________
"Nous sommes des nains juchés sur des épaules de géant."
Bernard de Chartres


Dernière édition par Narduccio le Ven 13 Mar 2009 - 20:00; édité 1 fois
Revenir en haut
Narduccio
Modérateur

Hors ligne

Inscrit le: 09 Jan 2008
Messages: 4 415
Localisation: Alsace
Masculin Bélier (21mar-19avr) 鼠 Rat
Niveau de guitare: En progrès
Point(s): 0
Moyenne de points: 0

MessagePosté le: Dim 8 Mar 2009 - 16:07    Sujet du message: Arpèges Répondre en citant

Pour la suite, nous allons faire connaissance avec les basses alternées chères aux guitaristes qui pratiquent le picking. Jusqu'à présent, le pouce se contentait de jouer la fondamentale, mais pourquoi se contenter d'une ligne de basses si insipide ? On peut s'en libérer, il suffit que le pouce pince une autre note de l'accord. Sur les accords de 6 et 5 notes, il y a du choix, mais pour les accords de 4 notes ? Et bien, il va falloir aller chercher une 5ème note, une note plus basse que la fondamentale de l'accord, mais qui fait partie des notes qui composent l'accord. Prenons l'accord de RÉ, une telle note existe, c'est le LA qui se trouve sur la seconde corde jouée à vide.
Question suivante : quand jouer cette basse alternée ? Par principe, la première note jouée par le pouce sera la fondamentale, la suivante sera donc la tierce ou la quinte (plus souvent la tierce puisqu'elle occupe souvent la corde juste au dessous de la fondamentale). Le pouce va donc jouer une ligne de basse comme ceci :

Code:

     E                    A                    D                    E                   
E||--------------------|--------------------|--------------------|---------------------||
B||--------------------|--------------------|--------------------|---------------------||
G||--------------------|--------------------|--------------------|---------------------||
D||--------------------|-----------2--------|--0-----------------|---------------------||
A||-----------2--------|--0-----------------|-----------0--------|-----------2---------||
E||--0-----------------|--------------------|--------------------|--0------------------||



Si on reprend notre premier arpèges, le pmam, cela donne :

Code:

     E                          A                          D                          E                         
E||--------0-----------0-----|--------0-----------0-----|--------2-----------2-----|--------0-----------0------||
B||-----0-----0-----0-----0--|-----2-----2-----2-----2--|-----3-----3-----3-----3--|-----0-----0-----0-----0---||
G||--------------------------|--------------------------|--------------------------|---------------------------||
D||--------------------------|--------------2-----------|--0-----------------------|---------------------------||
A||--------------2-----------|--0-----------------------|--------------0-----------|--------------2------------||
E||--0-----------------------|--------------------------|--------------------------|--0------------------------||





Je vous conseille de reprendre les exemples précédents, mais en faisant alterner les basses.
_________________
"Nous sommes des nains juchés sur des épaules de géant."
Bernard de Chartres


Dernière édition par Narduccio le Ven 13 Mar 2009 - 20:01; édité 1 fois
Revenir en haut
Narduccio
Modérateur

Hors ligne

Inscrit le: 09 Jan 2008
Messages: 4 415
Localisation: Alsace
Masculin Bélier (21mar-19avr) 鼠 Rat
Niveau de guitare: En progrès
Point(s): 0
Moyenne de points: 0

MessagePosté le: Dim 8 Mar 2009 - 16:08    Sujet du message: Arpèges Répondre en citant

Avec les accords à 6 notes, on peut faire des variations encore plus séduisantes :

Code:

     E                                                     Em                                                   
E||-----------0-----------0--|-----------0-----------0--|-----------0-----------0--|-----------0-----------0---||
B||--------0-----------0-----|--------0-----------0-----|--------0-----------0-----|--------0-----------0------||
G||-----1-----------1--------|-----1-----------1--------|-----0-----------0--------|-----0-----------0---------||
D||--------------------------|--2-----------------------|--------------------------|--2------------------------||
A||--------------2-----------|--------------2-----------|--------------2-----------|--------------2------------||
E||--0-----------------------|--------------------------|--0-----------------------|---------------------------||





Un petit 3 /4 avec basses alternées ? Voici un p m a, on joue 2 fois le même accord.

Code:

     E                                   A                                   D                                   E                                   
E||------------0----|------------0----|------------0----|------------0----|------------2----|------------2----|------------0----|------------0-----||
B||-------0---------|-------0---------|-------2---------|-------2---------|-------3---------|-------3---------|-------0---------|-------0----------||
G||-----------------|-----------------|-----------------|-----------------|-----------------|-----------------|-----------------|------------------||
D||-----------------|-----------------|-----------------|--2--------------|--0--------------|-----------------|-----------------|------------------||
A||-----------------|--2--------------|--0--------------|-----------------|-----------------|--0--------------|-----------------|--2---------------||
E||--0--------------|-----------------|-----------------|-----------------|-----------------|-----------------|--0--------------|------------------||




_________________
"Nous sommes des nains juchés sur des épaules de géant."
Bernard de Chartres


Dernière édition par Narduccio le Ven 13 Mar 2009 - 20:03; édité 1 fois
Revenir en haut
Narduccio
Modérateur

Hors ligne

Inscrit le: 09 Jan 2008
Messages: 4 415
Localisation: Alsace
Masculin Bélier (21mar-19avr) 鼠 Rat
Niveau de guitare: En progrès
Point(s): 0
Moyenne de points: 0

MessagePosté le: Dim 8 Mar 2009 - 16:09    Sujet du message: Arpèges Répondre en citant

Les basses sont-elles toujours sur un temps fort ? Non, pas forcément, Par exemple le p i m a m i p i .

Code:

     E                          A                           D                          E                         
E||-----------0--------------|-----------0--------------|-----------2--------------|-----------0---------------||
B||--------0-----0-----------|--------2-----2-----------|--------3-----3-----------|--------0-----0------------||
G||-----1-----------1-----1--|-----2-----------2-----2--|-----2-----------2-----2--|-----1-----------1-----1---||
D||--------------------------|--------------------2-----|--0-----------------------|---------------------------||
A||--------------------2-----|--0-----------------------|--------------------0-----|--------------------2------||
E||--0-----------------------|--------------------------|--------------------------|--0------------------------||



En 6/8, le p m a m p m :

Code:

     E                    A                    D                    E                   
E||--------0-----------|--------0-----------|--------2-----------|--------0------------||
B||-----0-----0-----0--|-----2-----2-----2--|-----3-----3-----3--|-----0-----0-----0---||
G||--------------------|--------------------|--------------------|---------------------||
D||--------------------|--------------2-----|--0-----------------|---------------------||
A||--------------2-----|--0-----------------|--------------0-----|--------------2------||
E||--0-----------------|--------------------|--------------------|--0------------------||



Toujours avec 6 croches par mesures (donc en 6/8, pour ceux qui ne suivraient pas), le p i m a p i :




Code:

     E                    A                    D                    E                   
E||-----------0--------|-----------0--------|-----------2--------|-----------0---------||
B||--------0-----------|--------2-----------|--------3-----------|--------0------------||
G||-----1-----------1--|-----2-----------2--|-----2-----------2--|-----1-----------1---||
D||--------------------|--------------2-----|--0-----------------|---------------------||
A||--------------2-----|--0-----------------|--------------0-----|--------------2------||
E||--0-----------------|--------------------|--------------------|--0------------------||


_________________
"Nous sommes des nains juchés sur des épaules de géant."
Bernard de Chartres


Dernière édition par Narduccio le Dim 19 Juil 2009 - 23:04; édité 1 fois
Revenir en haut
Narduccio
Modérateur

Hors ligne

Inscrit le: 09 Jan 2008
Messages: 4 415
Localisation: Alsace
Masculin Bélier (21mar-19avr) 鼠 Rat
Niveau de guitare: En progrès
Point(s): 0
Moyenne de points: 0

MessagePosté le: Dim 8 Mar 2009 - 16:10    Sujet du message: Arpèges Répondre en citant

Peut-on jouer une basse sur chaque temps ? Bien sûr, voici le p i p m :

Code:

     E                          A                          D                          E                         
E||--------------------------|--------------------------|--------------------------|---------------------------||
B||-----------0-----------0--|-----------2-----------2--|-----------3-----------3--|-----------0-----------0---||
G||-----1-----------1--------|-----2-----------2--------|-----2-----------2--------|-----1-----------1---------||
D||--------------------------|--------2-----------2-----|--0-----------0-----------|---------------------------||
A||--------2-----------2-----|--0-----------0-----------|--------0-----------0-----|--------2-----------2------||
E||--0-----------0-----------|--------------------------|--------------------------|--0-----------0------------||


_________________
"Nous sommes des nains juchés sur des épaules de géant."
Bernard de Chartres
Revenir en haut
Narduccio
Modérateur

Hors ligne

Inscrit le: 09 Jan 2008
Messages: 4 415
Localisation: Alsace
Masculin Bélier (21mar-19avr) 鼠 Rat
Niveau de guitare: En progrès
Point(s): 0
Moyenne de points: 0

MessagePosté le: Dim 8 Mar 2009 - 16:10    Sujet du message: Arpèges Répondre en citant

Ceux qui ont fait attention ont du noter que les lettres des thèmes étaient détachées par un espace, comme ceci : p i m a m i . Il y a une raison à cela, c'est que lorsque les signes sont accolés, ça veut dire que l'on joue les 2 notes en même temps avec les 2 doigts en question. Par exemple, le p ma ma dont voici la tablature :

Code:

     E                 A                 D                 E                 
E||-------0----0----|-------0----0----|-------2----2----|-------0----0-----||
B||-------0----0----|-------2----2----|-------3----3----|-------0----0-----||
G||-----------------|-----------------|-----------------|------------------||
D||-----------------|-----------------|--0--------------|------------------||
A||-----------------|--0--------------|-----------------|------------------||
E||--0--------------|-----------------|-----------------|--0---------------||



Pour jouer le thème suivant, le p ima ima , c'est 3 doigts que l'on utilise :

Code:

     E                 A                 D                 E                 
E||-------0----0----|-------0----0----|-------2----2----|-------0----0-----||
B||-------0----0----|-------2----2----|-------3----3----|-------0----0-----||
G||-------1----1----|-------2----2----|-------2----2----|-------1----1-----||
D||-----------------|-----------------|--0--------------|------------------||
A||-----------------|--0--------------|-----------------|------------------||
E||--0--------------|-----------------|-----------------|--0---------------||


_________________
"Nous sommes des nains juchés sur des épaules de géant."
Bernard de Chartres
Revenir en haut
Narduccio
Modérateur

Hors ligne

Inscrit le: 09 Jan 2008
Messages: 4 415
Localisation: Alsace
Masculin Bélier (21mar-19avr) 鼠 Rat
Niveau de guitare: En progrès
Point(s): 0
Moyenne de points: 0

MessagePosté le: Dim 8 Mar 2009 - 16:11    Sujet du message: Arpèges Répondre en citant

Brassens utilisait souvent le suivant : p ami p ami p ami p ami :

Code:

     E                          A                          D                          E                         
E||-----0-----0-----0-----0--|-----0-----0-----0-----0--|-----2-----2-----2-----2--|-----0-----0-----0-----0---||
B||-----0-----0-----0-----0--|-----2-----2-----2-----2--|-----3-----3-----3-----3--|-----0-----0-----0-----0---||
G||-----1-----1-----1-----1--|-----2-----2-----2-----2--|-----2-----2-----2-----2--|-----1-----1-----1-----1---||
D||--------------------2-----|--------2-----------2-----|--0-----------0-----------|--------------------2------||
A||--------2-----------------|--0-----------0-----------|--------0-----------0-----|--------2------------------||
E||--0-----------0-----------|--------------------------|--------------------------|--0-----------0------------||



Et voici le p i am i p i am i sans basses alternées :

Code:

     E                          A                          D                          E                         
E||--------0-----------0-----|--------0-----------0-----|--------2-----------2-----|--------0-----------0------||
B||--------0-----------0-----|--------2-----------2-----|--------3-----------3-----|--------0-----------0------||
G||-----1-----1-----1-----1--|-----2-----2-----2-----2--|-----2-----2-----2-----2--|-----1-----1-----1-----1---||
D||--------------------------|--------------------------|--0-----------0-----------|---------------------------||
A||--------------------------|--0-----------0-----------|--------------------------|---------------------------||
E||--0-----------0-----------|--------------------------|--------------------------|--0-----------0------------||



Et en alternant les basses (PS: a partir de maintenant, vous êtres sensés savoir que les arpèges peuvent se faire avec ou sans basses alternées, ce qui m'évitera de faire les 2 thèmes à chaque fois …)

Code:

     E                          A                          D                          E                         
E||--------0-----------0-----|--------0-----------0-----|--------2-----------2-----|--------0-----------0------||
B||--------0-----------0-----|--------2-----------2-----|--------3-----------3-----|--------0-----------0------||
G||-----1-----1-----1-----1--|-----2-----2-----2-----2--|-----2-----2-----2-----2--|-----1-----1-----1-----1---||
D||--------------------------|--------------2-----------|--0-----------------------|---------------------------||
A||--------------2-----------|--0-----------------------|--------------0-----------|--------------2------------||
E||--0-----------------------|--------------------------|--------------------------|--0------------------------||



Et le p i am i am i en 3/4 dont voici la tablature :

Code:

     E                    A                    D                    E                   
E||--------0-----0-----|--------0-----0-----|--------2-----2-----|--------0-----0------||
B||--------0-----0-----|--------2-----2-----|--------3-----3-----|--------0-----0------||
G||-----1-----1-----1--|-----2-----2-----2--|-----2-----2-----2--|-----1-----1-----1---||
D||--------------------|--------------------|--0-----------------|---------------------||
A||--------------------|--0-----------------|--------------------|---------------------||
E||--0-----------------|--------------------|--------------------|--0------------------||


_________________
"Nous sommes des nains juchés sur des épaules de géant."
Bernard de Chartres
Revenir en haut
Narduccio
Modérateur

Hors ligne

Inscrit le: 09 Jan 2008
Messages: 4 415
Localisation: Alsace
Masculin Bélier (21mar-19avr) 鼠 Rat
Niveau de guitare: En progrès
Point(s): 0
Moyenne de points: 0

MessagePosté le: Dim 8 Mar 2009 - 16:12    Sujet du message: Arpèges Répondre en citant

Peut-on utiliser des notes qui ne font pas partie des accords joués ? Cela arrive, on peut s'en servir pour aller d'une basse à l'autre, comme sur l'exemple suivant, le p i m a m i p p :

Code:

     E                          A                          D                          E                         
E||-----------0--------------|-----------0--------------|-----------2--------------|-----------0---------------||
B||--------0-----0-----------|--------2-----2-----------|--------3-----3-----------|--------0-----0------------||
G||-----0-----------0--------|-----2-----------2--------|-----2-----------2--------|-----0-----------0---------||
D||--------------------------|--------------------------|--0-----------------0-----|---------------------------||
A||-----------------------2--|--0-----------------0--2--|-----------------------0--|-----------------------2---||
E||--0-----------------3-----|--------------------------|--------------------------|--0-----------------3------||



Toute la difficulté consiste à trouver les notes intermédiaires de manière à ce que les basses roulent naturellement sans choquer l'oreille.
_________________
"Nous sommes des nains juchés sur des épaules de géant."
Bernard de Chartres
Revenir en haut
Narduccio
Modérateur

Hors ligne

Inscrit le: 09 Jan 2008
Messages: 4 415
Localisation: Alsace
Masculin Bélier (21mar-19avr) 鼠 Rat
Niveau de guitare: En progrès
Point(s): 0
Moyenne de points: 0

MessagePosté le: Dim 8 Mar 2009 - 16:12    Sujet du message: Arpèges Répondre en citant

Si vous désirez marquer un peu plus l'apparition d'un nouvel accord, il y a une méthode : pa i m a . Les 2 notes jouées en introduction de l'accord, ça se nomme le "pinch" en picking et peut être utilisé de diverses manières sur plusieurs des arpèges que nous venons de voir. Exemple :

Code:

     E                          A                          D                          E                         
E||--0--------0--0--------0--|--0--------0--0--------0--|--2--------2--2--------2--|--0--------0--0--------0---||
B||--------0-----------0-----|--------2-----------2-----|--------3-----------3-----|--------0-----------0------||
G||-----0-----------0--------|-----2-----------2--------|-----2-----------2--------|-----0-----------0---------||
D||--------------------------|--------------------------|--0-----------0-----------|---------------------------||
A||--------------------------|--0-----------0-----------|--------------------------|---------------------------||
E||--0-----------0-----------|--------------------------|--------------------------|--0-----------0------------||



Ce qui donne si on alterne les basses :

Code:

     E                          A                          D                          E                         
E||--0--------0--0--------0--|--0--------0--0--------0--|--2--------2--2--------2--|--0--------0--0--------0---||
B||--------0-----------0-----|--------2-----------2-----|--------3-----------3-----|--------0-----------0------||
G||-----0-----------0--------|-----2-----------2--------|-----2-----------2--------|-----0-----------0---------||
D||--------------------------|--------------2-----------|--0-----------------------|---------------------------||
A||--------------2-----------|--0-----------------------|--------------0-----------|--------------2------------||
E||--0-----------------------|--------------------------|--------------------------|--0------------------------||


_________________
"Nous sommes des nains juchés sur des épaules de géant."
Bernard de Chartres
Revenir en haut
Narduccio
Modérateur

Hors ligne

Inscrit le: 09 Jan 2008
Messages: 4 415
Localisation: Alsace
Masculin Bélier (21mar-19avr) 鼠 Rat
Niveau de guitare: En progrès
Point(s): 0
Moyenne de points: 0

MessagePosté le: Dim 8 Mar 2009 - 16:15    Sujet du message: Arpèges Répondre en citant

On n'a pas vu grand chose avec des triolets. Voici un thème très simple, mais ce sont les basses qui font tout le travail p m a :

Code:

     E                                      A                                      D                                      E                                     
     |--3--|  |--3--|  |--3--|  |--3--|     |--3--|  |--3--|  |--3--|  |--3--|     |--3--|  |--3--|  |--3--|  |--3--|     |--3--|  |--3--|  |--3--|  |--3--|     
E||--------0--------0--------0--------0--|--------0--------0--------0--------0--|--------2--------2--------2--------2--|--------0--------0--------0--------0---||
B||-----0--------0--------0--------0-----|-----2--------2--------2--------2-----|-----3--------3--------3--------3-----|-----0--------0--------0--------0------||
G||--------------------------------------|--------------------2-----------------|-----------2--------------------------|---------------------------------------||
D||--------------------2-----------------|-----------2-----------------2--------|--0-----------------0-----------------|--------------------2------------------||
A||-----------2-----------------2--------|--0-----------------------------------|-----------------------------0--------|-----------2-----------------2---------||
E||--0-----------------------------------|--------------------------------------|--------------------------------------|--0------------------------------------||


_________________
"Nous sommes des nains juchés sur des épaules de géant."
Bernard de Chartres
Revenir en haut
Narduccio
Modérateur

Hors ligne

Inscrit le: 09 Jan 2008
Messages: 4 415
Localisation: Alsace
Masculin Bélier (21mar-19avr) 鼠 Rat
Niveau de guitare: En progrès
Point(s): 0
Moyenne de points: 0

MessagePosté le: Dim 8 Mar 2009 - 16:15    Sujet du message: Arpèges Répondre en citant

Et si l'on commence par 1 noire ? C'est le cas avec le thème suivant. Le fait d'introduire l'accord avec une noire lui donne plus de présence. pm i p a m i p :

Code:

     E                         A                         D                         E                         
     Q    E  E  E  E  E  E     Q    E  E  E  E  E  E     Q    E  E  E  E  E  E     Q    E  E  E  E  E  E
E||-------------0-----------|-------------0-----------|-------------2-----------|-------------0------------||
B||--0-------------0--------|--2-------------2--------|--3-------------3--------|--0-------------0---------||
G||-------1-----------1-----|-------2-----------2-----|-------2-----------2-----|-------1-----------1------||
D||----------------------2--|----------2--------------|--0-------------------0--|----------------------2---||
A||----------2--------------|--0-------------------0--|----------0--------------|----------2---------------||
E||--0----------------------|-------------------------|-------------------------|--0-----------------------||


_________________
"Nous sommes des nains juchés sur des épaules de géant."
Bernard de Chartres
Revenir en haut
Contenu Sponsorisé






MessagePosté le: Aujourd’hui à 15:11    Sujet du message: Arpèges

Revenir en haut
Montrer les messages depuis:   
Poster un nouveau sujet   Répondre au sujet    six.cordes : les cours de guitare Index du Forum -> Apprendre et comprendre la guitare -> Comment apprendre la guitare ? - FAQ -> Les cours de guitare du forum Toutes les heures sont au format GMT + 1 Heure
Aller à la page: 1, 2, 3, 4, 5  >
Page 1 sur 5

 
Sauter vers:  

Portail | Index | créer un forum | Forum gratuit d’entraide | Annuaire des forums gratuits | Signaler une violation | Conditions générales d'utilisation
Powered by phpBB © 2001, 2005 phpBB Group
Logo by mide.be